  0
SECTION
  2
ENTITIES
  0
LINE
  8
0
 10
0
 20
1198.88
 30
0.0
 11
0
 21
-1201.42
 31
0.0
  0
LINE
  8
0
 10
0
 20
-1201.42
 30
0.0
 11
254.0769
 21
-1201.42
 31
0.0
  0
LINE
  8
0
 10
254.0769
 20
-1201.42
 30
0.0
 11
508.1537
 21
-1201.42
 31
0.0
  0
LINE
  8
0
 10
508.1537
 20
-1201.42
 30
0.0
 11
762.2306
 21
-1201.42
 31
0.0
  0
LINE
  8
0
 10
762.2306
 20
-1201.42
 30
0.0
 11
1016.307
 21
-1201.42
 31
0.0
  0
LINE
  8
0
 10
1016.307
 20
-1201.42
 30
0.0
 11
1016.307
 21
-3601.72
 31
0.0
  0
LINE
  8
0
 10
1016.307
 20
-3601.72
 30
0.0
 11
762.2306
 21
-3601.72
 31
0.0
  0
LINE
  8
0
 10
762.2306
 20
-3601.72
 30
0.0
 11
508.1537
 21
-3601.72
 31
0.0
  0
LINE
  8
0
 10
508.1537
 20
-3601.72
 30
0.0
 11
254.0769
 21
-3601.72
 31
0.0
  0
LINE
  8
0
 10
254.0769
 20
-3601.72
 30
0.0
 11
0
 21
-3601.72
 31
0.0
  0
CIRCLE
  8
0
 10
1000
 20
7000
 30
0.0
 40
100
  0
CIRCLE
  8
0
 10
3000
 20
7000
 30
0.0
 40
100
  0
CIRCLE
  8
0
 10
5000
 20
7000
 30
0.0
 40
100
  0
CIRCLE
  8
0
 10
100
 20
100
 30
0.0
 40
126
  0
CIRCLE
  8
0
 10
200
 20
200
 30
0.0
 40
200
  0
CIRCLE
  8
0
 10
300
 20
300
 30
0.0
 40
200
  0
CIRCLE
  8
0
 10
350
 20
350
 30
0.0
 40
200
  0
CIRCLE
  8
0
 10
360
 20
360
 30
0.0
 40
200
  0
CIRCLE
  8
0
 10
370
 20
370
 30
0.0
 40
200
  0
ENDSEC
  0
EOF
