  0
SECTION
  2
ENTITIES
  0
ARC
  8
0
 10
98.93944
 20
525.088
 30
0.0
 40
156.0011
 50
292.5376
 51
353.7117
  0
ARC
  8
0
 10
218.5251
 20
236.9137
 30
0.0
 40
156.0011
 50
112.5373
 51
173.7114
  0
ARC
  8
0
 10
-91.59972
 20
271.0898
 30
0.0
 40
156.0011
 50
292.5376
 51
353.7117
  0
ARC
  8
0
 10
27.98593
 20
-17.08456
 30
0.0
 40
156.0011
 50
112.5373
 51
173.7114
  0
ARC
  8
0
 10
-282.1389
 20
17.09175
 30
0.0
 40
156.0011
 50
292.5376
 51
353.7117
  0
ARC
  8
0
 10
-162.5532
 20
-271.0826
 30
0.0
 40
156.0011
 50
112.5373
 51
173.7114
  0
ARC
  8
0
 10
-472.678
 20
-236.9064
 30
0.0
 40
156.0011
 50
292.5376
 51
353.7117
  0
ARC
  8
0
 10
-353.0924
 20
-525.0807
 30
0.0
 40
156.0011
 50
112.5373
 51
173.7114
  0
ARC
  8
0
 10
-353.0921
 20
-490.9071
 30
0.0
 40
156.0011
 50
186.2878
 51
247.4618
  0
ARC
  8
0
 10
-472.683
 20
-779.0793
 30
0.0
 40
156.0011
 50
6.287477
 51
67.46159
  0
ARC
  8
0
 10
-162.5575
 20
-744.9089
 30
0.0
 40
156.0011
 50
186.2878
 51
247.4617
  0
ARC
  8
0
 10
-282.1485
 20
-1033.081
 30
0.0
 40
156.0011
 50
6.287546
 51
67.46159
  0
ARC
  8
0
 10
27.9769
 20
-998.9104
 30
0.0
 40
156.0011
 50
186.2877
 51
247.4617
  0
ARC
  8
0
 10
-91.61407
 20
-1287.083
 30
0.0
 40
156.0011
 50
6.287546
 51
67.46159
  0
ARC
  8
0
 10
218.5114
 20
-1252.912
 30
0.0
 40
156.0011
 50
186.2878
 51
247.4617
  0
ARC
  8
0
 10
98.92042
 20
-1541.084
 30
0.0
 40
156.0011
 50
6.2875
 51
67.46159
  0
CIRCLE
  8
0
 10
1000
 20
6000
 30
0.0
 40
100
  0
CIRCLE
  8
0
 10
1000
 20
8000
 30
0.0
 40
100
  0
CIRCLE
  8
0
 10
2500
 20
6000
 30
0.0
 40
100
  0
CIRCLE
  8
0
 10
2500
 20
8000
 30
0.0
 40
100
  0
CIRCLE
  8
0
 10
100
 20
100
 30
0.0
 40
125
  0
CIRCLE
  8
0
 10
200
 20
200
 30
0.0
 40
200
  0
CIRCLE
  8
0
 10
300
 20
300
 30
0.0
 40
200
  0
CIRCLE
  8
0
 10
350
 20
350
 30
0.0
 40
200
  0
CIRCLE
  8
0
 10
360
 20
360
 30
0.0
 40
200
  0
CIRCLE
  8
0
 10
370
 20
370
 30
0.0
 40
200
  0
ENDSEC
  0
EOF
