  0
SECTION
  2
ENTITIES
  0
ARC
  8
0
 10
64.46426
 20
186.3319
 30
0.0
 40
197.7757
 50
289.5858
 51
355.1305
  0
ARC
  8
0
 10
197.0596
 20
-186.3325
 30
0.0
 40
197.7757
 50
109.5859
 51
175.1306
  0
ARC
  8
0
 10
197.0601
 20
-152.7612
 30
0.0
 40
197.7757
 50
184.868
 51
250.4127
  0
ARC
  8
0
 10
64.45444
 20
-525.4219
 30
0.0
 40
197.7757
 50
4.868252
 51
70.41296
  0
CIRCLE
  8
0
 10
1000
 20
6000
 30
0.0
 40
100
  0
CIRCLE
  8
0
 10
1500
 20
8000
 30
0.0
 40
100
  0
CIRCLE
  8
0
 10
2000
 20
6000
 30
0.0
 40
100
  0
CIRCLE
  8
0
 10
100
 20
100
 30
0.0
 40
125
  0
CIRCLE
  8
0
 10
200
 20
200
 30
0.0
 40
200
  0
CIRCLE
  8
0
 10
300
 20
300
 30
0.0
 40
200
  0
CIRCLE
  8
0
 10
350
 20
350
 30
0.0
 40
200
  0
CIRCLE
  8
0
 10
360
 20
360
 30
0.0
 40
200
  0
CIRCLE
  8
0
 10
370
 20
370
 30
0.0
 40
200
  0
ENDSEC
  0
EOF
