  0
SECTION
  2
ENTITIES
  0
LINE
  8
0
 10
0
 20
1015.325
 30
0.0
 11
0
 21
761.3253
 31
0.0
  0
LINE
  8
0
 10
0
 20
761.3253
 30
0.0
 11
0
 21
507.3251
 31
0.0
  0
LINE
  8
0
 10
0
 20
507.3251
 30
0.0
 11
0
 21
253.3251
 31
0.0
  0
LINE
  8
0
 10
0
 20
253.3251
 30
0.0
 11
0
 21
63.54243
 31
0.0
  0
LINE
  8
0
 10
0
 20
63.54243
 30
0.0
 11
254
 21
63.54243
 31
0.0
  0
LINE
  8
0
 10
254
 20
63.54243
 30
0.0
 11
508.0001
 21
63.54243
 31
0.0
  0
LINE
  8
0
 10
508.0001
 20
63.54243
 30
0.0
 11
762.0002
 21
63.54243
 31
0.0
  0
LINE
  8
0
 10
762.0002
 20
63.54243
 30
0.0
 11
1016
 21
63.54243
 31
0.0
  0
LINE
  8
0
 10
1016
 20
63.54243
 30
0.0
 11
1016
 21
-.6749725
 31
0.0
  0
LINE
  8
0
 10
1016
 20
-.6749725
 30
0.0
 11
762.0002
 21
-.6749725
 31
0.0
  0
LINE
  8
0
 10
762.0002
 20
-.6749725
 30
0.0
 11
508.0001
 21
-.6749725
 31
0.0
  0
LINE
  8
0
 10
508.0001
 20
-.6749725
 30
0.0
 11
254
 21
-.6749725
 31
0.0
  0
LINE
  8
0
 10
254
 20
-.6749725
 30
0.0
 11
0
 21
-.6749725
 31
0.0
  0
CIRCLE
  8
0
 10
1000
 20
7000
 30
0.0
 40
100
  0
CIRCLE
  8
0
 10
3000
 20
7000
 30
0.0
 40
100
  0
CIRCLE
  8
0
 10
5000
 20
7000
 30
0.0
 40
100
  0
CIRCLE
  8
0
 10
100
 20
100
 30
0.0
 40
125
  0
CIRCLE
  8
0
 10
200
 20
200
 30
0.0
 40
200
  0
CIRCLE
  8
0
 10
300
 20
300
 30
0.0
 40
200
  0
CIRCLE
  8
0
 10
350
 20
350
 30
0.0
 40
200
  0
CIRCLE
  8
0
 10
360
 20
360
 30
0.0
 40
200
  0
CIRCLE
  8
0
 10
370
 20
370
 30
0.0
 40
200
  0
ENDSEC
  0
EOF
