  0
SECTION
  2
ENTITIES
  0
LINE
  8
0
 10
0
 20
1016
 30
0.0
 11
0
 21
762
 31
0.0
  0
LINE
  8
0
 10
0
 20
762
 30
0.0
 11
0
 21
508
 31
0.0
  0
LINE
  8
0
 10
0
 20
508
 30
0.0
 11
0
 21
64.36958
 31
0.0
  0
LINE
  8
0
 10
0
 20
64.36958
 30
0.0
 11
64.36957
 21
64.36958
 31
0.0
  0
LINE
  8
0
 10
64.36957
 20
64.36958
 30
0.0
 11
64.36957
 21
508
 31
0.0
  0
LINE
  8
0
 10
64.36957
 20
508
 30
0.0
 11
64.36957
 21
762
 31
0.0
  0
LINE
  8
0
 10
64.36957
 20
762
 30
0.0
 11
64.36957
 21
1016
 31
0.0
  0
LINE
  8
0
 10
64.36957
 20
1016
 30
0.0
 11
64.36957
 21
762
 31
0.0
  0
LINE
  8
0
 10
64.36957
 20
762
 30
0.0
 11
64.36957
 21
508
 31
0.0
  0
LINE
  8
0
 10
64.36957
 20
508
 30
0.0
 11
64.36957
 21
64.36958
 31
0.0
  0
LINE
  8
0
 10
64.36957
 20
64.36958
 30
0.0
 11
64.36957
 21
-8.695637
 31
0.0
  0
LINE
  8
0
 10
64.36957
 20
-8.695637
 30
0.0
 11
64.36957
 21
64.36958
 31
0.0
  0
LINE
  8
0
 10
64.36957
 20
64.36958
 30
0.0
 11
508
 21
64.36958
 31
0.0
  0
LINE
  8
0
 10
508
 20
64.36958
 30
0.0
 11
762
 21
64.36958
 31
0.0
  0
LINE
  8
0
 10
762
 20
64.36958
 30
0.0
 11
1016
 21
64.36958
 31
0.0
  0
LINE
  8
0
 10
1016
 20
64.36958
 30
0.0
 11
1016
 21
1.525879E-05
 31
0.0
  0
LINE
  8
0
 10
1016
 20
1.525879E-05
 30
0.0
 11
762
 21
1.525879E-05
 31
0.0
  0
LINE
  8
0
 10
762
 20
1.525879E-05
 30
0.0
 11
508
 21
1.525879E-05
 31
0.0
  0
LINE
  8
0
 10
508
 20
1.525879E-05
 30
0.0
 11
64.36957
 21
1.525879E-05
 31
0.0
  0
LINE
  8
0
 10
64.36957
 20
1.525879E-05
 30
0.0
 11
0
 21
1.525879E-05
 31
0.0
  0
CIRCLE
  8
0
 10
1000
 20
7000
 30
0.0
 40
100
  0
CIRCLE
  8
0
 10
3000
 20
7000
 30
0.0
 40
100
  0
CIRCLE
  8
0
 10
5000
 20
7000
 30
0.0
 40
100
  0
CIRCLE
  8
0
 10
100
 20
100
 30
0.0
 40
125
  0
CIRCLE
  8
0
 10
200
 20
200
 30
0.0
 40
200
  0
CIRCLE
  8
0
 10
300
 20
300
 30
0.0
 40
200
  0
CIRCLE
  8
0
 10
350
 20
350
 30
0.0
 40
200
  0
CIRCLE
  8
0
 10
360
 20
360
 30
0.0
 40
200
  0
CIRCLE
  8
0
 10
370
 20
370
 30
0.0
 40
200
  0
ENDSEC
  0
EOF
