  0
SECTION
  2
ENTITIES
  0
LINE
  8
0
 10
253.9625
 20
381.0564
 30
0.0
 11
140
 21
212.2
 31
0.0
  0
LINE
  8
0
 10
140
 20
212.2
 30
0.0
 11
253.9625
 21
381.0564
 31
0.0
  0
LINE
  8
0
 10
253.9625
 20
381.0564
 30
0.0
 11
507.962
 21
.0567942
 31
0.0
  0
LINE
  8
0
 10
507.962
 20
.0567942
 30
0.0
 11
761.962
 21
381.0564
 31
0.0
  0
LINE
  8
0
 10
761.962
 20
381.0564
 30
0.0
 11
931.4452
 21
127.2074
 31
0.0
  0
LINE
  8
0
 10
931.4452
 20
127.2074
 30
0.0
 11
1016.188
 21
.2823464
 31
0.0
  0
LINE
  8
0
 10
1016.188
 20
.2823464
 30
0.0
 11
940.4923
 21
-113.2177
 31
0.0
  0
LINE
  8
0
 10
940.4923
 20
-113.2177
 30
0.0
 11
1016.188
 21
.2823464
 31
0.0
  0
LINE
  8
0
 10
1016.188
 20
.2823464
 30
0.0
 11
931.4452
 21
127.2074
 31
0.0
  0
LINE
  8
0
 10
931.4452
 20
127.2074
 30
0.0
 11
1067.829
 21
78.0397
 31
0.0
  0
LINE
  8
0
 10
1067.829
 20
78.0397
 30
0.0
 11
1162.159
 21
219.782
 31
0.0
  0
LINE
  8
0
 10
1162.159
 20
219.782
 30
0.0
 11
1170.636
 21
50.99625
 31
0.0
  0
LINE
  8
0
 10
1170.636
 20
50.99625
 30
0.0
 11
1322.142
 21
-11.20366
 31
0.0
  0
LINE
  8
0
 10
1322.142
 20
-11.20366
 30
0.0
 11
1171.098
 21
-56.33404
 31
0.0
  0
LINE
  8
0
 10
1171.098
 20
-56.33404
 30
0.0
 11
1162.159
 21
-219.2173
 31
0.0
  0
LINE
  8
0
 10
1162.159
 20
-219.2173
 30
0.0
 11
1270.075
 21
-380.7172
 31
0.0
  0
LINE
  8
0
 10
1270.075
 20
-380.7172
 30
0.0
 11
1162.159
 21
-219.2173
 31
0.0
  0
LINE
  8
0
 10
1162.159
 20
-219.2173
 30
0.0
 11
1067.356
 21
-70.5123
 31
0.0
  0
LINE
  8
0
 10
1067.356
 20
-70.5123
 30
0.0
 11
940.4923
 21
-113.2176
 31
0.0
  0
LINE
  8
0
 10
940.4923
 20
-113.2177
 30
0.0
 11
761.962
 21
-380.9428
 31
0.0
  0
LINE
  8
0
 10
761.962
 20
-380.9428
 30
0.0
 11
507.962
 21
.0567942
 31
0.0
  0
LINE
  8
0
 10
507.962
 20
.0567942
 30
0.0
 11
253.9625
 21
-380.9428
 31
0.0
  0
LINE
  8
0
 10
253.9625
 20
-380.9428
 30
0.0
 11
361.9258
 21
-542.1097
 31
0.0
  0
LINE
  8
0
 10
361.9258
 20
-542.1097
 30
0.0
 11
456.2979
 21
-683.8243
 31
0.0
  0
LINE
  8
0
 10
456.2979
 20
-683.8243
 30
0.0
 11
592.6663
 21
-634.6163
 31
0.0
  0
LINE
  8
0
 10
592.6663
 20
-634.6163
 30
0.0
 11
456.2979
 21
-683.8243
 31
0.0
  0
LINE
  8
0
 10
456.2979
 20
-683.8243
 30
0.0
 11
361.9258
 21
-542.1097
 31
0.0
  0
LINE
  8
0
 10
361.9258
 20
-542.1097
 30
0.0
 11
353.4988
 21
-710.8981
 31
0.0
  0
LINE
  8
0
 10
353.4988
 20
-710.8981
 30
0.0
 11
202.0113
 21
-773.1428
 31
0.0
  0
LINE
  8
0
 10
202.0113
 20
-773.1428
 30
0.0
 11
353.0685
 21
-818.2286
 31
0.0
  0
LINE
  8
0
 10
353.0685
 20
-818.2286
 30
0.0
 11
362.0557
 21
-981.1093
 31
0.0
  0
LINE
  8
0
 10
362.0557
 20
-981.1093
 30
0.0
 11
456.8146
 21
-832.3762
 31
0.0
  0
LINE
  8
0
 10
456.8146
 20
-832.3762
 30
0.0
 11
583.6904
 21
-875.044
 31
0.0
  0
LINE
  8
0
 10
583.6904
 20
-875.0441
 30
0.0
 11
507.9616
 21
-761.5664
 31
0.0
  0
LINE
  8
0
 10
507.9616
 20
-761.5664
 30
0.0
 11
592.6663
 21
-634.6163
 31
0.0
  0
LINE
  8
0
 10
592.6663
 20
-634.6163
 30
0.0
 11
762.0746
 21
-380.7172
 31
0.0
  0
LINE
  8
0
 10
762.0746
 20
-380.7172
 30
0.0
 11
1016.075
 21
-761.7168
 31
0.0
  0
LINE
  8
0
 10
1016.075
 20
-761.7168
 30
0.0
 11
1270.075
 21
-380.7172
 31
0.0
  0
LINE
  8
0
 10
1270.075
 20
-380.7172
 30
0.0
 11
1016.075
 21
-761.7168
 31
0.0
  0
LINE
  8
0
 10
1016.075
 20
-761.7168
 30
0.0
 11
1270.075
 21
-1142.718
 31
0.0
  0
LINE
  8
0
 10
1270.075
 20
-1142.718
 30
0.0
 11
1016.075
 21
-761.7168
 31
0.0
  0
LINE
  8
0
 10
1016.075
 20
-761.7168
 30
0.0
 11
762.0746
 21
-1142.718
 31
0.0
  0
LINE
  8
0
 10
762.0746
 20
-1142.718
 30
0.0
 11
583.5441
 21
-874.9917
 31
0.0
  0
LINE
  8
0
 10
583.6904
 20
-875.044
 30
0.0
 11
456.8146
 21
-832.3762
 31
0.0
  0
LINE
  8
0
 10
456.8146
 20
-832.3762
 30
0.0
 11
362.0557
 21
-981.1093
 31
0.0
  0
LINE
  8
0
 10
362.0557
 20
-981.1093
 30
0.0
 11
253.9625
 21
-1142.944
 31
0.0
  0
CIRCLE
  8
0
 10
1000
 20
7000
 30
0.0
 40
100
  0
CIRCLE
  8
0
 10
3000
 20
7000
 30
0.0
 40
100
  0
CIRCLE
  8
0
 10
5000
 20
7000
 30
0.0
 40
100
  0
CIRCLE
  8
0
 10
100
 20
100
 30
0.0
 40
128
  0
CIRCLE
  8
0
 10
200
 20
200
 30
0.0
 40
200
  0
CIRCLE
  8
0
 10
300
 20
300
 30
0.0
 40
200
  0
CIRCLE
  8
0
 10
350
 20
350
 30
0.0
 40
200
  0
CIRCLE
  8
0
 10
360
 20
360
 30
0.0
 40
200
  0
CIRCLE
  8
0
 10
370
 20
370
 30
0.0
 40
200
  0
ENDSEC
  0
EOF
