  0
SECTION
  2
ENTITIES
  0
LINE
  8
0
 10
222.1652
 20
254
 30
0.0
 11
1.859538E-05
 21
31.83479
 31
0.0
  0
LINE
  8
0
 10
1.859538E-05
 20
31.83479
 30
0.0
 11
222.1652
 21
254
 31
0.0
  0
LINE
  8
0
 10
222.1652
 20
254
 30
0.0
 11
254
 21
222.1652
 31
0.0
  0
LINE
  8
0
 10
254
 20
222.1652
 30
0.0
 11
476.1652
 21
2.098593E-05
 31
0.0
  0
LINE
  8
0
 10
476.1652
 20
2.098593E-05
 30
0.0
 11
508
 21
31.83479
 31
0.0
  0
LINE
  8
0
 10
508
 20
31.83479
 30
0.0
 11
285.8348
 21
254
 31
0.0
  0
LINE
  8
0
 10
285.8348
 20
254
 30
0.0
 11
254
 21
222.1652
 31
0.0
  0
LINE
  8
0
 10
254
 20
222.1652
 30
0.0
 11
31.83479
 21
2.098593E-05
 31
0.0
  0
LINE
  8
0
 10
31.83479
 20
2.098593E-05
 30
0.0
 11
-1.57369E-05
 21
31.8348
 31
0.0
  0
LINE
  8
0
 10
-1.57369E-05
 20
31.8348
 30
0.0
 11
31.83479
 21
2.098593E-05
 31
0.0
  0
LINE
  8
0
 10
31.83479
 20
2.098593E-05
 30
0.0
 11
-4.781106E-07
 21
-31.83477
 31
0.0
  0
LINE
  8
0
 10
1.859538E-05
 20
-31.83475
 30
0.0
 11
222.1652
 21
-254
 31
0.0
  0
LINE
  8
0
 10
222.1652
 20
-254
 30
0.0
 11
1.859538E-05
 21
-31.83475
 31
0.0
  0
LINE
  8
0
 10
-4.781106E-07
 20
-31.83477
 30
0.0
 11
31.83479
 21
2.098593E-05
 31
0.0
  0
LINE
  8
0
 10
31.83479
 20
2.098593E-05
 30
0.0
 11
254
 21
-222.1652
 31
0.0
  0
LINE
  8
0
 10
254
 20
-222.1652
 30
0.0
 11
476.1652
 21
2.098593E-05
 31
0.0
  0
LINE
  8
0
 10
476.1652
 20
2.098593E-05
 30
0.0
 11
508
 21
-31.83476
 31
0.0
  0
LINE
  8
0
 10
508
 20
-31.83475
 30
0.0
 11
285.8348
 21
-254
 31
0.0
  0
LINE
  8
0
 10
285.8348
 20
-254
 30
0.0
 11
254
 21
-222.1652
 31
0.0
  0
LINE
  8
0
 10
254
 20
-222.1652
 30
0.0
 11
222.1652
 21
-254
 31
0.0
  0
CIRCLE
  8
0
 10
1000
 20
7000
 30
0.0
 40
100
  0
CIRCLE
  8
0
 10
2000
 20
7000
 30
0.0
 40
100
  0
CIRCLE
  8
0
 10
3000
 20
7000
 30
0.0
 40
100
  0
CIRCLE
  8
0
 10
100
 20
100
 30
0.0
 40
130
  0
CIRCLE
  8
0
 10
200
 20
200
 30
0.0
 40
190
  0
CIRCLE
  8
0
 10
300
 20
300
 30
0.0
 40
206
  0
CIRCLE
  8
0
 10
350
 20
350
 30
0.0
 40
200
  0
CIRCLE
  8
0
 10
360
 20
360
 30
0.0
 40
200
  0
CIRCLE
  8
0
 10
370
 20
370
 30
0.0
 40
200
  0
ENDSEC
  0
EOF
