  0
SECTION
  2
ENTITIES
  0
LINE
  8
0
 10
508
 20
762
 30
0.0
 11
482.9564
 21
737.4348
 31
0.0
  0
LINE
  8
0
 10
482.9563
 20
737.4348
 30
0.0
 11
507.9999
 21
712.8696
 31
0.0
  0
LINE
  8
0
 10
507.9999
 20
712.8696
 30
0.0
 11
482.9563
 21
688.3044
 31
0.0
  0
LINE
  8
0
 10
482.9562
 20
688.3044
 30
0.0
 11
507.9999
 21
663.7393
 31
0.0
  0
LINE
  8
0
 10
507.9999
 20
663.7393
 30
0.0
 11
482.9562
 21
639.1741
 31
0.0
  0
LINE
  8
0
 10
482.9562
 20
639.1741
 30
0.0
 11
507.9998
 21
614.6089
 31
0.0
  0
LINE
  8
0
 10
507.9998
 20
614.6089
 30
0.0
 11
482.9562
 21
590.0437
 31
0.0
  0
LINE
  8
0
 10
482.9561
 20
590.0437
 30
0.0
 11
507.9998
 21
565.4785
 31
0.0
  0
LINE
  8
0
 10
508
 20
565.4783
 30
0.0
 11
472.84
 21
565.4783
 31
0.0
  0
LINE
  8
0
 10
472.84
 20
565.4783
 30
0.0
 11
492.0872
 21
541
 31
0.0
  0
LINE
  8
0
 10
492.0872
 20
541
 30
0.0
 11
456.9272
 21
541
 31
0.0
  0
LINE
  8
0
 10
456.9272
 20
541
 30
0.0
 11
469.0654
 21
508.913
 31
0.0
  0
LINE
  8
0
 10
469.0654
 20
508.913
 30
0.0
 11
433.9054
 21
508.913
 31
0.0
  0
LINE
  8
0
 10
433.9054
 20
508.913
 30
0.0
 11
446.0436
 21
476.826
 31
0.0
  0
LINE
  8
0
 10
446.0436
 20
476.826
 30
0.0
 11
410.8836
 21
476.826
 31
0.0
  0
LINE
  8
0
 10
410.8836
 20
476.826
 30
0.0
 11
423.0218
 21
444.7391
 31
0.0
  0
LINE
  8
0
 10
423.0218
 20
444.7391
 30
0.0
 11
387.8618
 21
444.7391
 31
0.0
  0
LINE
  8
0
 10
387.8618
 20
444.7391
 30
0.0
 11
400
 21
412.6521
 31
0.0
  0
LINE
  8
0
 10
400
 20
412.6521
 30
0.0
 11
364.84
 21
412.6521
 31
0.0
  0
LINE
  8
0
 10
364.84
 20
412.6521
 30
0.0
 11
376.9781
 21
380.5651
 31
0.0
  0
LINE
  8
0
 10
376.9781
 20
380.5651
 30
0.0
 11
341.8181
 21
380.5651
 31
0.0
  0
LINE
  8
0
 10
341.8181
 20
380.5651
 30
0.0
 11
353.9563
 21
348.4781
 31
0.0
  0
LINE
  8
0
 10
353.9563
 20
348.4781
 30
0.0
 11
318.7963
 21
348.4781
 31
0.0
  0
LINE
  8
0
 10
318.7963
 20
348.4781
 30
0.0
 11
330.9345
 21
316.3912
 31
0.0
  0
LINE
  8
0
 10
330.9345
 20
316.3912
 30
0.0
 11
295.7745
 21
316.3912
 31
0.0
  0
LINE
  8
0
 10
295.7745
 20
316.3912
 30
0.0
 11
307.9127
 21
284.3042
 31
0.0
  0
LINE
  8
0
 10
307.9127
 20
284.3042
 30
0.0
 11
272.7527
 21
284.3042
 31
0.0
  0
LINE
  8
0
 10
272.7527
 20
284.3042
 30
0.0
 11
284.8909
 21
252.2172
 31
0.0
  0
LINE
  8
0
 10
284.8909
 20
252.2172
 30
0.0
 11
249.7309
 21
252.2172
 31
0.0
  0
LINE
  8
0
 10
249.7309
 20
252.2172
 30
0.0
 11
261.869
 21
220.1302
 31
0.0
  0
LINE
  8
0
 10
261.869
 20
220.1302
 30
0.0
 11
226.709
 21
220.1302
 31
0.0
  0
LINE
  8
0
 10
226.709
 20
220.1302
 30
0.0
 11
238.8472
 21
188.0433
 31
0.0
  0
LINE
  8
0
 10
238.8472
 20
188.0433
 30
0.0
 11
203.6872
 21
188.0433
 31
0.0
  0
LINE
  8
0
 10
203.6872
 20
188.0433
 30
0.0
 11
215.8254
 21
155.9563
 31
0.0
  0
LINE
  8
0
 10
215.8254
 20
155.9563
 30
0.0
 11
180.6654
 21
155.9563
 31
0.0
  0
LINE
  8
0
 10
180.6654
 20
155.9563
 30
0.0
 11
192.8036
 21
123.8693
 31
0.0
  0
LINE
  8
0
 10
192.8036
 20
123.8693
 30
0.0
 11
157.6436
 21
123.8693
 31
0.0
  0
LINE
  8
0
 10
157.6436
 20
123.8693
 30
0.0
 11
169.7818
 21
91.78236
 31
0.0
  0
LINE
  8
0
 10
169.7818
 20
91.78236
 30
0.0
 11
134.6218
 21
91.78236
 31
0.0
  0
LINE
  8
0
 10
134.6218
 20
91.78236
 30
0.0
 11
146.7599
 21
59.69538
 31
0.0
  0
LINE
  8
0
 10
146.7599
 20
59.69538
 30
0.0
 11
111.5999
 21
59.69538
 31
0.0
  0
LINE
  8
0
 10
111.5999
 20
59.69538
 30
0.0
 11
123.7381
 21
27.60841
 31
0.0
  0
LINE
  8
0
 10
123.7381
 20
27.60841
 30
0.0
 11
88.57814
 21
27.60841
 31
0.0
  0
LINE
  8
0
 10
88.57814
 20
27.60841
 30
0.0
 11
99.13454
 21
1.144409E-05
 31
0.0
  0
LINE
  8
0
 10
99.13454
 20
1.144409E-05
 30
0.0
 11
63.97454
 21
1.144409E-05
 31
0.0
  0
LINE
  8
0
 10
63.97454
 20
1.144409E-05
 30
0.0
 11
89.0182
 21
-24.56518
 31
0.0
  0
LINE
  8
0
 10
89.0182
 20
-24.56518
 30
0.0
 11
63.97453
 21
-49.13037
 31
0.0
  0
LINE
  8
0
 10
63.97453
 20
-49.13037
 30
0.0
 11
89.0182
 21
-73.69556
 31
0.0
  0
LINE
  8
0
 10
89.0182
 20
-73.69556
 30
0.0
 11
63.97452
 21
-98.26074
 31
0.0
  0
LINE
  8
0
 10
63.97452
 20
-98.26074
 30
0.0
 11
89.01819
 21
-122.8259
 31
0.0
  0
LINE
  8
0
 10
89.01819
 20
-122.8259
 30
0.0
 11
63.97451
 21
-147.3911
 31
0.0
  0
LINE
  8
0
 10
63.97451
 20
-147.3911
 30
0.0
 11
89.01818
 21
-171.9563
 31
0.0
  0
LINE
  8
0
 10
89.01818
 20
-171.9563
 30
0.0
 11
63.97451
 21
-196.5215
 31
0.0
  0
LINE
  8
0
 10
63.97453
 20
-196.5217
 30
0.0
 11
99.13453
 21
-196.5217
 31
0.0
  0
LINE
  8
0
 10
99.13453
 20
-196.5217
 30
0.0
 11
88.57814
 21
-224.1301
 31
0.0
  0
LINE
  8
0
 10
88.57814
 20
-224.1301
 30
0.0
 11
123.7381
 21
-224.1301
 31
0.0
  0
LINE
  8
0
 10
123.7381
 20
-224.1301
 30
0.0
 11
111.5999
 21
-256.2171
 31
0.0
  0
LINE
  8
0
 10
111.5999
 20
-256.2171
 30
0.0
 11
146.7599
 21
-256.2171
 31
0.0
  0
LINE
  8
0
 10
146.7599
 20
-256.2171
 30
0.0
 11
134.6218
 21
-288.3041
 31
0.0
  0
LINE
  8
0
 10
134.6218
 20
-288.3041
 30
0.0
 11
169.7818
 21
-288.3041
 31
0.0
  0
LINE
  8
0
 10
169.7818
 20
-288.3041
 30
0.0
 11
157.6436
 21
-320.3911
 31
0.0
  0
LINE
  8
0
 10
157.6436
 20
-320.3911
 30
0.0
 11
192.8036
 21
-320.3911
 31
0.0
  0
LINE
  8
0
 10
192.8036
 20
-320.3911
 30
0.0
 11
180.6654
 21
-352.478
 31
0.0
  0
LINE
  8
0
 10
180.6654
 20
-352.478
 30
0.0
 11
215.8254
 21
-352.478
 31
0.0
  0
LINE
  8
0
 10
215.8254
 20
-352.478
 30
0.0
 11
203.6872
 21
-384.565
 31
0.0
  0
LINE
  8
0
 10
203.6872
 20
-384.565
 30
0.0
 11
238.8472
 21
-384.565
 31
0.0
  0
LINE
  8
0
 10
238.8472
 20
-384.565
 30
0.0
 11
226.709
 21
-416.652
 31
0.0
  0
LINE
  8
0
 10
226.709
 20
-416.652
 30
0.0
 11
261.869
 21
-416.652
 31
0.0
  0
LINE
  8
0
 10
261.869
 20
-416.652
 30
0.0
 11
249.7308
 21
-448.739
 31
0.0
  0
LINE
  8
0
 10
249.7308
 20
-448.739
 30
0.0
 11
284.8909
 21
-448.739
 31
0.0
  0
LINE
  8
0
 10
284.8909
 20
-448.739
 30
0.0
 11
272.7527
 21
-480.8259
 31
0.0
  0
LINE
  8
0
 10
272.7527
 20
-480.8259
 30
0.0
 11
307.9127
 21
-480.8259
 31
0.0
  0
LINE
  8
0
 10
307.9127
 20
-480.8259
 30
0.0
 11
295.7745
 21
-512.9129
 31
0.0
  0
LINE
  8
0
 10
295.7745
 20
-512.9129
 30
0.0
 11
330.9345
 21
-512.9129
 31
0.0
  0
LINE
  8
0
 10
330.9345
 20
-512.9129
 30
0.0
 11
318.7963
 21
-544.9999
 31
0.0
  0
LINE
  8
0
 10
318.7963
 20
-544.9999
 30
0.0
 11
353.9563
 21
-544.9999
 31
0.0
  0
LINE
  8
0
 10
353.9563
 20
-544.9999
 30
0.0
 11
341.8181
 21
-577.0869
 31
0.0
  0
LINE
  8
0
 10
341.8181
 20
-577.0869
 30
0.0
 11
376.9781
 21
-577.0869
 31
0.0
  0
LINE
  8
0
 10
376.9781
 20
-577.0869
 30
0.0
 11
364.84
 21
-609.1738
 31
0.0
  0
LINE
  8
0
 10
364.84
 20
-609.1738
 30
0.0
 11
399.9999
 21
-609.1738
 31
0.0
  0
LINE
  8
0
 10
399.9999
 20
-609.1738
 30
0.0
 11
387.8617
 21
-641.2608
 31
0.0
  0
LINE
  8
0
 10
387.8617
 20
-641.2608
 30
0.0
 11
423.0217
 21
-641.2608
 31
0.0
  0
LINE
  8
0
 10
423.0217
 20
-641.2608
 30
0.0
 11
410.8835
 21
-673.3478
 31
0.0
  0
LINE
  8
0
 10
410.8835
 20
-673.3478
 30
0.0
 11
446.0435
 21
-673.3478
 31
0.0
  0
LINE
  8
0
 10
446.0435
 20
-673.3478
 30
0.0
 11
433.9054
 21
-705.4348
 31
0.0
  0
LINE
  8
0
 10
433.9054
 20
-705.4348
 30
0.0
 11
469.0654
 21
-705.4348
 31
0.0
  0
LINE
  8
0
 10
469.0654
 20
-705.4348
 30
0.0
 11
456.9272
 21
-737.5217
 31
0.0
  0
LINE
  8
0
 10
456.9272
 20
-737.5217
 30
0.0
 11
492.0872
 21
-737.5217
 31
0.0
  0
LINE
  8
0
 10
492.0872
 20
-737.5217
 30
0.0
 11
472.8399
 21
-762
 31
0.0
  0
LINE
  8
0
 10
472.8399
 20
-762
 30
0.0
 11
507.9999
 21
-762
 31
0.0
  0
CIRCLE
  8
0
 10
1000
 20
7000
 30
0.0
 40
100
  0
CIRCLE
  8
0
 10
2000
 20
8000
 30
0.0
 40
100
  0
CIRCLE
  8
0
 10
3000
 20
7000
 30
0.0
 40
100
  0
CIRCLE
  8
0
 10
100
 20
100
 30
0.0
 40
135
  0
CIRCLE
  8
0
 10
200
 20
200
 30
0.0
 40
200
  0
CIRCLE
  8
0
 10
300
 20
300
 30
0.0
 40
200
  0
CIRCLE
  8
0
 10
350
 20
350
 30
0.0
 40
200
  0
CIRCLE
  8
0
 10
360
 20
360
 30
0.0
 40
200
  0
CIRCLE
  8
0
 10
370
 20
370
 30
0.0
 40
200
  0
ENDSEC
  0
EOF
