  0
SECTION
  2
ENTITIES
  0
LINE
  8
0
 10
253.1231
 20
363.22
 30
0.0
 11
-.8850411
 21
109.2119
 31
0.0
  0
LINE
  8
0
 10
-.8850411
 20
109.2119
 30
0.0
 11
-.8850411
 21
-1.269993
 31
0.0
  0
LINE
  8
0
 10
-.8850411
 20
-1.269993
 30
0.0
 11
253.1231
 21
252.7381
 31
0.0
  0
LINE
  8
0
 10
253.1231
 20
252.7381
 30
0.0
 11
253.1231
 21
363.22
 31
0.0
  0
LINE
  8
0
 10
253.1231
 20
363.22
 30
0.0
 11
507.1312
 21
109.2119
 31
0.0
  0
LINE
  8
0
 10
507.1312
 20
109.2119
 30
0.0
 11
507.1312
 21
-1.269993
 31
0.0
  0
LINE
  8
0
 10
507.1312
 20
-1.269993
 30
0.0
 11
253.1231
 21
252.7381
 31
0.0
  0
LINE
  8
0
 10
253.1231
 20
252.7381
 30
0.0
 11
507.1312
 21
-1.269993
 31
0.0
  0
LINE
  8
0
 10
507.1312
 20
-1.269993
 30
0.0
 11
253.1231
 21
-255.2781
 31
0.0
  0
LINE
  8
0
 10
253.1231
 20
-255.2781
 30
0.0
 11
507.1312
 21
-1.269993
 31
0.0
  0
LINE
  8
0
 10
507.1312
 20
-1.269993
 30
0.0
 11
507.1312
 21
-111.7518
 31
0.0
  0
LINE
  8
0
 10
507.1312
 20
-111.7518
 30
0.0
 11
253.1231
 21
-365.76
 31
0.0
  0
LINE
  8
0
 10
253.1231
 20
-365.76
 30
0.0
 11
253.1231
 21
-255.2781
 31
0.0
  0
LINE
  8
0
 10
253.1231
 20
-255.2781
 30
0.0
 11
-.8850411
 21
-1.269993
 31
0.0
  0
LINE
  8
0
 10
-.8850411
 20
-1.269993
 30
0.0
 11
-.8850411
 21
-111.7518
 31
0.0
  0
LINE
  8
0
 10
-.8850411
 20
-111.7518
 30
0.0
 11
253.1231
 21
-365.76
 31
0.0
  0
CIRCLE
  8
0
 10
1000
 20
7000
 30
0.0
 40
100
  0
CIRCLE
  8
0
 10
2000
 20
7000
 30
0.0
 40
100
  0
CIRCLE
  8
0
 10
3000
 20
7000
 30
0.0
 40
100
  0
CIRCLE
  8
0
 10
100
 20
100
 30
0.0
 40
130
  0
CIRCLE
  8
0
 10
200
 20
200
 30
0.0
 40
200
  0
CIRCLE
  8
0
 10
300
 20
300
 30
0.0
 40
200
  0
CIRCLE
  8
0
 10
350
 20
350
 30
0.0
 40
200
  0
CIRCLE
  8
0
 10
360
 20
360
 30
0.0
 40
200
  0
CIRCLE
  8
0
 10
370
 20
370
 30
0.0
 40
200
  0
ENDSEC
  0
EOF
