  0
SECTION
  2
ENTITIES
  0
LINE
  8
0
 10
-833.0401
 20
720.1693
 30
0.0
 11
182.7976
 21
339.2302
 31
0.0
  0
LINE
  8
0
 10
182.7976
 20
339.2302
 30
0.0
 11
1198.635
 21
720.1693
 31
0.0
  0
LINE
  8
0
 10
1198.635
 20
720.1693
 30
0.0
 11
1198.635
 21
593.1897
 31
0.0
  0
LINE
  8
0
 10
1198.635
 20
593.1897
 30
0.0
 11
182.7976
 21
212.2504
 31
0.0
  0
LINE
  8
0
 10
182.7976
 20
212.2504
 30
0.0
 11
-833.0401
 21
593.1897
 31
0.0
  0
LINE
  8
0
 10
-833.0401
 20
593.1897
 30
0.0
 11
-833.0401
 21
466.2099
 31
0.0
  0
LINE
  8
0
 10
-833.0401
 20
466.2099
 30
0.0
 11
182.7976
 21
85.27072
 31
0.0
  0
LINE
  8
0
 10
182.7976
 20
85.27072
 30
0.0
 11
1198.635
 21
466.2099
 31
0.0
  0
LINE
  8
0
 10
1198.635
 20
466.2099
 30
0.0
 11
1198.635
 21
148.6693
 31
0.0
  0
LINE
  8
0
 10
1198.635
 20
148.6693
 30
0.0
 11
182.7976
 21
-232.2699
 31
0.0
  0
LINE
  8
0
 10
182.7976
 20
-232.2699
 30
0.0
 11
-833.0401
 21
148.6693
 31
0.0
  0
LINE
  8
0
 10
-833.0401
 20
148.6693
 30
0.0
 11
-833.0401
 21
21.68957
 31
0.0
  0
LINE
  8
0
 10
-833.0401
 20
21.68957
 30
0.0
 11
182.7976
 21
-359.2495
 31
0.0
  0
LINE
  8
0
 10
182.7976
 20
-359.2495
 30
0.0
 11
1198.635
 21
21.68957
 31
0.0
  0
LINE
  8
0
 10
1198.635
 20
21.68957
 30
0.0
 11
1198.635
 21
-105.2901
 31
0.0
  0
LINE
  8
0
 10
1198.635
 20
-105.2901
 30
0.0
 11
182.7976
 21
-486.2293
 31
0.0
  0
LINE
  8
0
 10
182.7976
 20
-486.2293
 30
0.0
 11
-833.0401
 21
-105.2901
 31
0.0
  0
LINE
  8
0
 10
-833.0401
 20
-105.2901
 30
0.0
 11
-833.0401
 21
-422.8307
 31
0.0
  0
CIRCLE
  8
0
 10
1000
 20
7000
 30
0.0
 40
100
  0
CIRCLE
  8
0
 10
5000
 20
7000
 30
0.0
 40
100
  0
CIRCLE
  8
0
 10
9000
 20
7000
 30
0.0
 40
100
  0
CIRCLE
  8
0
 10
100
 20
100
 30
0.0
 40
125
  0
CIRCLE
  8
0
 10
200
 20
200
 30
0.0
 40
200
  0
CIRCLE
  8
0
 10
300
 20
300
 30
0.0
 40
200
  0
CIRCLE
  8
0
 10
350
 20
350
 30
0.0
 40
200
  0
CIRCLE
  8
0
 10
360
 20
360
 30
0.0
 40
200
  0
CIRCLE
  8
0
 10
370
 20
370
 30
0.0
 40
200
  0
ENDSEC
  0
EOF
