  0
SECTION
  2
ENTITIES
  0
LINE
  8
0
 10
254
 20
254
 30
0.0
 11
216.08
 21
228.7739
 31
0.0
  0
LINE
  8
0
 10
216.08
 20
228.7739
 30
0.0
 11
254
 21
203.5478
 31
0.0
  0
LINE
  8
0
 10
254
 20
203.5478
 30
0.0
 11
216.08
 21
178.3217
 31
0.0
  0
LINE
  8
0
 10
216.08
 20
178.3217
 30
0.0
 11
254
 21
153.0956
 31
0.0
  0
LINE
  8
0
 10
254
 20
153.0956
 30
0.0
 11
216.08
 21
127.8696
 31
0.0
  0
LINE
  8
0
 10
216.08
 20
127.8696
 30
0.0
 11
254
 21
102.6435
 31
0.0
  0
LINE
  8
0
 10
254
 20
102.6435
 30
0.0
 11
216.08
 21
77.41737
 31
0.0
  0
LINE
  8
0
 10
216.08
 20
77.41737
 30
0.0
 11
254
 21
52.19128
 31
0.0
  0
LINE
  8
0
 10
254
 20
52.19128
 30
0.0
 11
208.2836
 21
52.19128
 31
0.0
  0
LINE
  8
0
 10
208.2836
 20
52.19128
 30
0.0
 11
223.1267
 21
12.28812
 31
0.0
  0
LINE
  8
0
 10
223.1267
 20
12.28812
 30
0.0
 11
177.4103
 21
12.28812
 31
0.0
  0
LINE
  8
0
 10
177.4103
 20
12.28812
 30
0.0
 11
192.2534
 21
-27.61505
 31
0.0
  0
LINE
  8
0
 10
192.2534
 20
-27.61505
 30
0.0
 11
146.537
 21
-27.61505
 31
0.0
  0
LINE
  8
0
 10
146.537
 20
-27.61505
 30
0.0
 11
161.38
 21
-67.51822
 31
0.0
  0
LINE
  8
0
 10
161.38
 20
-67.51822
 30
0.0
 11
115.6637
 21
-67.51822
 31
0.0
  0
LINE
  8
0
 10
115.6637
 20
-67.51822
 30
0.0
 11
130.5067
 21
-107.4214
 31
0.0
  0
LINE
  8
0
 10
130.5067
 20
-107.4214
 30
0.0
 11
84.79034
 21
-107.4214
 31
0.0
  0
LINE
  8
0
 10
84.79034
 20
-107.4214
 30
0.0
 11
99.63339
 21
-147.3246
 31
0.0
  0
LINE
  8
0
 10
99.63339
 20
-147.3246
 30
0.0
 11
53.91702
 21
-147.3246
 31
0.0
  0
LINE
  8
0
 10
53.91702
 20
-147.3246
 30
0.0
 11
68.76007
 21
-187.2277
 31
0.0
  0
LINE
  8
0
 10
68.76007
 20
-187.2277
 30
0.0
 11
23.0437
 21
-187.2277
 31
0.0
  0
LINE
  8
0
 10
23.0437
 20
-187.2277
 30
0.0
 11
37.88675
 21
-227.1309
 31
0.0
  0
LINE
  8
0
 10
37.88675
 20
-227.1309
 30
0.0
 11
-7.82962
 21
-227.1309
 31
0.0
  0
LINE
  8
0
 10
-7.82962
 20
-227.1309
 30
0.0
 11
7.013428
 21
-267.0341
 31
0.0
  0
LINE
  8
0
 10
7.013428
 20
-267.0341
 30
0.0
 11
-38.70294
 21
-267.0341
 31
0.0
  0
LINE
  8
0
 10
-38.70294
 20
-267.0341
 30
0.0
 11
-23.85989
 21
-306.9372
 31
0.0
  0
LINE
  8
0
 10
-23.85989
 20
-306.9372
 30
0.0
 11
-69.57626
 21
-306.9372
 31
0.0
  0
LINE
  8
0
 10
-69.57626
 20
-306.9372
 30
0.0
 11
-54.73322
 21
-346.8404
 31
0.0
  0
LINE
  8
0
 10
-54.73322
 20
-346.8404
 30
0.0
 11
-100.4496
 21
-346.8404
 31
0.0
  0
LINE
  8
0
 10
-100.4496
 20
-346.8404
 30
0.0
 11
-85.60654
 21
-386.7436
 31
0.0
  0
LINE
  8
0
 10
-85.60654
 20
-386.7436
 30
0.0
 11
-131.3229
 21
-386.7436
 31
0.0
  0
LINE
  8
0
 10
-131.3229
 20
-386.7436
 30
0.0
 11
-116.4799
 21
-426.6467
 31
0.0
  0
LINE
  8
0
 10
-116.4799
 20
-426.6467
 30
0.0
 11
-162.1962
 21
-426.6467
 31
0.0
  0
LINE
  8
0
 10
-162.1962
 20
-426.6467
 30
0.0
 11
-147.3532
 21
-466.5499
 31
0.0
  0
LINE
  8
0
 10
-147.3532
 20
-466.5499
 30
0.0
 11
-193.0695
 21
-466.5499
 31
0.0
  0
LINE
  8
0
 10
-193.0695
 20
-466.5499
 30
0.0
 11
-177.3964
 21
-508
 31
0.0
  0
LINE
  8
0
 10
-177.3964
 20
-508
 30
0.0
 11
-223.1127
 21
-508
 31
0.0
  0
LINE
  8
0
 10
-223.1127
 20
-508
 30
0.0
 11
-185.1927
 21
-533.2261
 31
0.0
  0
LINE
  8
0
 10
-185.1927
 20
-533.2261
 30
0.0
 11
-223.1127
 21
-558.4521
 31
0.0
  0
LINE
  8
0
 10
-223.1127
 20
-558.4521
 30
0.0
 11
-185.1927
 21
-583.6783
 31
0.0
  0
LINE
  8
0
 10
-185.1927
 20
-583.6783
 30
0.0
 11
-223.1127
 21
-608.9044
 31
0.0
  0
LINE
  8
0
 10
-223.1127
 20
-608.9044
 30
0.0
 11
-185.1927
 21
-634.1304
 31
0.0
  0
LINE
  8
0
 10
-185.1927
 20
-634.1304
 30
0.0
 11
-223.1127
 21
-659.3566
 31
0.0
  0
LINE
  8
0
 10
-223.1127
 20
-659.3566
 30
0.0
 11
-185.1927
 21
-684.5826
 31
0.0
  0
LINE
  8
0
 10
-185.1927
 20
-684.5826
 30
0.0
 11
-223.1127
 21
-709.8087
 31
0.0
  0
LINE
  8
0
 10
-223.1127
 20
-709.8087
 30
0.0
 11
-177.3964
 21
-709.8087
 31
0.0
  0
LINE
  8
0
 10
-177.3964
 20
-709.8087
 30
0.0
 11
-192.2394
 21
-749.7119
 31
0.0
  0
LINE
  8
0
 10
-192.2394
 20
-749.7119
 30
0.0
 11
-146.523
 21
-749.7119
 31
0.0
  0
LINE
  8
0
 10
-146.523
 20
-749.7119
 30
0.0
 11
-161.3661
 21
-789.6151
 31
0.0
  0
LINE
  8
0
 10
-161.3661
 20
-789.6151
 30
0.0
 11
-115.6497
 21
-789.6151
 31
0.0
  0
LINE
  8
0
 10
-115.6497
 20
-789.6151
 30
0.0
 11
-130.4928
 21
-829.5182
 31
0.0
  0
LINE
  8
0
 10
-130.4928
 20
-829.5182
 30
0.0
 11
-84.7764
 21
-829.5182
 31
0.0
  0
LINE
  8
0
 10
-84.7764
 20
-829.5182
 30
0.0
 11
-99.61945
 21
-869.4214
 31
0.0
  0
LINE
  8
0
 10
-99.61945
 20
-869.4214
 30
0.0
 11
-53.90308
 21
-869.4214
 31
0.0
  0
LINE
  8
0
 10
-53.90308
 20
-869.4214
 30
0.0
 11
-68.74612
 21
-909.3246
 31
0.0
  0
LINE
  8
0
 10
-68.74612
 20
-909.3246
 30
0.0
 11
-23.02975
 21
-909.3246
 31
0.0
  0
LINE
  8
0
 10
-23.02975
 20
-909.3246
 30
0.0
 11
-37.8728
 21
-949.2277
 31
0.0
  0
LINE
  8
0
 10
-37.8728
 20
-949.2277
 30
0.0
 11
7.843567
 21
-949.2277
 31
0.0
  0
LINE
  8
0
 10
7.843567
 20
-949.2277
 30
0.0
 11
-6.999481
 21
-989.1309
 31
0.0
  0
LINE
  8
0
 10
-6.999481
 20
-989.1309
 30
0.0
 11
38.71686
 21
-989.1309
 31
0.0
  0
LINE
  8
0
 10
38.71686
 20
-989.1309
 30
0.0
 11
23.87384
 21
-1029.034
 31
0.0
  0
LINE
  8
0
 10
23.87384
 20
-1029.034
 30
0.0
 11
69.59021
 21
-1029.034
 31
0.0
  0
LINE
  8
0
 10
69.59021
 20
-1029.034
 30
0.0
 11
54.74713
 21
-1068.937
 31
0.0
  0
LINE
  8
0
 10
54.74713
 20
-1068.937
 30
0.0
 11
100.4636
 21
-1068.937
 31
0.0
  0
LINE
  8
0
 10
100.4636
 20
-1068.937
 30
0.0
 11
85.62048
 21
-1108.84
 31
0.0
  0
LINE
  8
0
 10
85.62048
 20
-1108.84
 30
0.0
 11
131.3369
 21
-1108.84
 31
0.0
  0
LINE
  8
0
 10
131.3369
 20
-1108.84
 30
0.0
 11
116.4938
 21
-1148.744
 31
0.0
  0
LINE
  8
0
 10
116.4938
 20
-1148.744
 30
0.0
 11
162.2101
 21
-1148.744
 31
0.0
  0
LINE
  8
0
 10
162.2101
 20
-1148.744
 30
0.0
 11
147.3671
 21
-1188.647
 31
0.0
  0
LINE
  8
0
 10
147.3671
 20
-1188.647
 30
0.0
 11
193.0835
 21
-1188.647
 31
0.0
  0
LINE
  8
0
 10
193.0835
 20
-1188.647
 30
0.0
 11
178.2404
 21
-1228.55
 31
0.0
  0
LINE
  8
0
 10
178.2404
 20
-1228.55
 30
0.0
 11
223.9568
 21
-1228.55
 31
0.0
  0
LINE
  8
0
 10
223.9568
 20
-1228.55
 30
0.0
 11
208.2836
 21
-1270
 31
0.0
  0
LINE
  8
0
 10
208.2836
 20
-1270
 30
0.0
 11
254
 21
-1270
 31
0.0
  0
CIRCLE
  8
0
 10
1000
 20
7000
 30
0.0
 40
100
  0
CIRCLE
  8
0
 10
2000
 20
8000
 30
0.0
 40
100
  0
CIRCLE
  8
0
 10
3000
 20
7000
 30
0.0
 40
100
  0
CIRCLE
  8
0
 10
100
 20
100
 30
0.0
 40
140
  0
CIRCLE
  8
0
 10
200
 20
200
 30
0.0
 40
200
  0
CIRCLE
  8
0
 10
300
 20
300
 30
0.0
 40
200
  0
CIRCLE
  8
0
 10
350
 20
350
 30
0.0
 40
200
  0
CIRCLE
  8
0
 10
360
 20
360
 30
0.0
 40
200
  0
CIRCLE
  8
0
 10
370
 20
370
 30
0.0
 40
200
  0
ENDSEC
  0
EOF
