  0
SECTION
  2
ENTITIES
  0
LINE
  8
0
 10
190.6036
 20
762
 30
0.0
 11
571.6036
 21
381
 31
0.0
  0
LINE
  8
0
 10
571.6036
 20
381
 30
0.0
 11
190.6036
 21
1.144409E-05
 31
0.0
  0
LINE
  8
0
 10
190.6036
 20
1.144409E-05
 30
0.0
 11
222.3018
 21
1.144409E-05
 31
0.0
  0
LINE
  8
0
 10
222.3018
 20
1.144409E-05
 30
0.0
 11
603.3018
 21
381
 31
0.0
  0
LINE
  8
0
 10
603.3018
 20
381
 30
0.0
 11
222.3018
 21
762
 31
0.0
  0
LINE
  8
0
 10
222.3018
 20
762
 30
0.0
 11
254
 21
762
 31
0.0
  0
LINE
  8
0
 10
254
 20
762
 30
0.0
 11
635
 21
381
 31
0.0
  0
LINE
  8
0
 10
635
 20
381
 30
0.0
 11
254
 21
1.144409E-05
 31
0.0
  0
LINE
  8
0
 10
254
 20
1.144409E-05
 30
0.0
 11
222.3018
 21
1.144409E-05
 31
0.0
  0
LINE
  8
0
 10
222.3018
 20
1.144409E-05
 30
0.0
 11
190.6036
 21
1.144409E-05
 31
0.0
  0
LINE
  8
0
 10
190.6036
 20
1.144409E-05
 30
0.0
 11
63.39636
 21
1.144409E-05
 31
0.0
  0
LINE
  8
0
 10
63.39636
 20
1.144409E-05
 30
0.0
 11
444.3964
 21
381
 31
0.0
  0
LINE
  8
0
 10
444.3964
 20
381
 30
0.0
 11
63.39636
 21
762
 31
0.0
  0
LINE
  8
0
 10
63.39636
 20
762
 30
0.0
 11
31.69818
 21
762
 31
0.0
  0
LINE
  8
0
 10
31.69818
 20
762
 30
0.0
 11
412.6982
 21
381
 31
0.0
  0
LINE
  8
0
 10
412.6982
 20
381
 30
0.0
 11
31.69818
 21
762
 31
0.0
  0
LINE
  8
0
 10
31.69818
 20
762
 30
0.0
 11
2.862579E-06
 21
762
 31
0.0
  0
LINE
  8
0
 10
2.862579E-06
 20
762
 30
0.0
 11
381
 21
381
 31
0.0
  0
LINE
  8
0
 10
381
 20
381
 30
0.0
 11
2.862579E-06
 21
1.144409E-05
 31
0.0
  0
LINE
  8
0
 10
2.862579E-06
 20
1.144409E-05
 30
0.0
 11
31.69818
 21
1.144409E-05
 31
0.0
  0
LINE
  8
0
 10
31.69818
 20
1.144409E-05
 30
0.0
 11
412.6982
 21
381
 31
0.0
  0
LINE
  8
0
 10
412.6982
 20
381
 30
0.0
 11
31.69818
 21
1.144409E-05
 31
0.0
  0
LINE
  8
0
 10
31.69818
 20
1.144409E-05
 30
0.0
 11
63.39636
 21
1.144409E-05
 31
0.0
  0
LINE
  8
0
 10
63.39636
 20
1.144409E-05
 30
0.0
 11
190.6036
 21
1.144409E-05
 31
0.0
  0
CIRCLE
  8
0
 10
1000
 20
7000
 30
0.0
 40
100
  0
CIRCLE
  8
0
 10
2000
 20
7000
 30
0.0
 40
100
  0
CIRCLE
  8
0
 10
3000
 20
7000
 30
0.0
 40
100
  0
CIRCLE
  8
0
 10
100
 20
100
 30
0.0
 40
128
  0
CIRCLE
  8
0
 10
200
 20
200
 30
0.0
 40
200
  0
CIRCLE
  8
0
 10
300
 20
300
 30
0.0
 40
200
  0
CIRCLE
  8
0
 10
350
 20
350
 30
0.0
 40
200
  0
CIRCLE
  8
0
 10
360
 20
360
 30
0.0
 40
200
  0
CIRCLE
  8
0
 10
370
 20
370
 30
0.0
 40
200
  0
ENDSEC
  0
EOF
