  0
SECTION
  2
ENTITIES
  0
LINE
  8
0
 10
-380.1994
 20
190.3044
 30
0.0
 11
2.019015E-04
 21
190.3044
 31
0.0
  0
ARC
  8
0
 10
-43.70335
 20
-46.97403
 30
0.0
 40
241.2697
 50
50.42707
 51
79.5639
  0
LINE
  8
0
 10
110
 20
139
 30
0.0
 11
268.3491
 21
1.096312E-03
 31
0.0
  0
LINE
  8
0
 10
268.3491
 20
1.096312E-03
 30
0.0
 11
634.2017
 21
1.123972E-03
 31
0.0
  0
LINE
  8
0
 10
634.2017
 20
1.123972E-03
 30
0.0
 11
793.2593
 21
138.1886
 31
0.0
  0
ARC
  8
0
 10
946.9614
 20
-47.78647
 30
0.0
 40
241.2697
 50
100.4359
 51
129.5727
  0
ARC
  8
0
 10
946.9614
 20
-47.78647
 30
0.0
 40
241.2697
 50
100.4359
 51
129.5727
  0
LINE
  8
0
 10
793.2593
 20
138.1886
 30
0.0
 11
634.2017
 21
1.123972E-03
 31
0.0
  0
LINE
  8
0
 10
634.2017
 20
1.12683E-03
 30
0.0
 11
648.5487
 21
1.12683E-03
 31
0.0
  0
ARC
  8
0
 10
545.2964
 20
-309.5188
 30
0.0
 40
325.7428
 50
45.09257
 51
71.38831
  0
LINE
  8
0
 10
775.2591
 20
-78.81219
 30
0.0
 11
903.2594
 21
-191.5078
 31
0.0
  0
LINE
  8
0
 10
903.2594
 20
-191.5078
 30
0.0
 11
775.2591
 21
-78.81219
 31
0.0
  0
ARC
  8
0
 10
545.2964
 20
-309.5188
 30
0.0
 40
325.7428
 50
45.09257
 51
71.38831
  0
LINE
  8
0
 10
648.5487
 20
1.12683E-03
 30
0.0
 11
634.2017
 21
1.12683E-03
 31
0.0
  0
LINE
  8
0
 10
634.2017
 20
1.123972E-03
 30
0.0
 11
268.3491
 21
1.096312E-03
 31
0.0
  0
LINE
  8
0
 10
268.3491
 20
1.096312E-03
 30
0.0
 11
254.0021
 21
1.096312E-03
 31
0.0
  0
ARC
  8
0
 10
357.9633
 20
-308.7066
 30
0.0
 40
325.7428
 50
108.6117
 51
134.9074
  0
LINE
  8
0
 10
128.0006
 20
-77.99999
 30
0.0
 11
3.095167E-04
 21
-190.6956
 31
0.0
  0
LINE
  8
0
 10
3.095167E-04
 20
-190.6956
 30
0.0
 11
-253.9997
 21
-190.6956
 31
0.0
  0
LINE
  8
0
 10
-253.9997
 20
-190.6956
 30
0.0
 11
-380.1994
 21
-190.6956
 31
0.0
  0
CIRCLE
  8
0
 10
1000
 20
7000
 30
0.0
 40
100
  0
CIRCLE
  8
0
 10
3500
 20
7000
 30
0.0
 40
100
  0
CIRCLE
  8
0
 10
100
 20
100
 30
0.0
 40
125
  0
CIRCLE
  8
0
 10
200
 20
200
 30
0.0
 40
200
  0
CIRCLE
  8
0
 10
300
 20
300
 30
0.0
 40
200
  0
CIRCLE
  8
0
 10
350
 20
350
 30
0.0
 40
200
  0
CIRCLE
  8
0
 10
360
 20
360
 30
0.0
 40
200
  0
CIRCLE
  8
0
 10
370
 20
370
 30
0.0
 40
200
  0
ENDSEC
  0
EOF
