  0
SECTION
  2
ENTITIES
  0
LINE
  8
0
 10
253.9991
 20
193.7479
 30
0.0
 11
-228.781
 21
-447.7484
 31
0.0
  0
ARC
  8
0
 10
-160.4749
 20
-511.7423
 30
0.0
 40
93.59991
 50
136.8669
 51
177.7086
  0
ARC
  8
0
 10
-160.4749
 20
-504.2574
 30
0.0
 40
93.59991
 50
182.2915
 51
223.1332
  0
LINE
  8
0
 10
-228.781
 20
-568.2513
 30
0.0
 11
253.9991
 21
-1209.748
 31
0.0
  0
ARC
  8
0
 10
185.6933
 20
-1273.742
 30
0.0
 40
93.59991
 50
2.291784
 51
43.13348
  0
ARC
  8
0
 10
185.6931
 20
-1266.261
 30
0.0
 40
93.59991
 50
316.8698
 51
357.7115
  0
CIRCLE
  8
0
 10
1000
 20
7000
 30
0.0
 40
100
  0
CIRCLE
  8
0
 10
2000
 20
8000
 30
0.0
 40
100
  0
CIRCLE
  8
0
 10
3000
 20
7000
 30
0.0
 40
100
  0
CIRCLE
  8
0
 10
100
 20
100
 30
0.0
 40
125
  0
CIRCLE
  8
0
 10
200
 20
200
 30
0.0
 40
200
  0
CIRCLE
  8
0
 10
300
 20
300
 30
0.0
 40
200
  0
CIRCLE
  8
0
 10
350
 20
350
 30
0.0
 40
200
  0
CIRCLE
  8
0
 10
360
 20
360
 30
0.0
 40
200
  0
CIRCLE
  8
0
 10
370
 20
370
 30
0.0
 40
200
  0
ENDSEC
  0
EOF
