  0
SECTION
  2
ENTITIES
  0
LINE
  8
0
 10
-634.9882
 20
1524
 30
0.0
 11
-380.9901
 21
1524
 31
0.0
  0
LINE
  8
0
 10
-380.9901
 20
1524
 30
0.0
 11
-126.992
 21
1524
 31
0.0
  0
ARC
  8
0
 10
-286.8062
 20
1172.221
 30
0.0
 40
386.379
 50
17.36872
 51
65.56762
  0
LINE
  8
0
 10
81.95534
 20
1287.563
 30
0.0
 11
273.0691
 21
761.9986
 31
0.0
  0
LINE
  8
0
 10
273.0691
 20
761.9986
 30
0.0
 11
742.9274
 21
761.9944
 31
0.0
  0
LINE
  8
0
 10
742.9274
 20
761.9944
 30
0.0
 11
934.0411
 21
1287.559
 31
0.0
  0
ARC
  8
0
 10
1302.803
 20
1172.217
 30
0.0
 40
386.379
 50
114.4324
 51
162.6313
  0
ARC
  8
0
 10
1302.803
 20
1172.217
 30
0.0
 40
386.379
 50
114.4324
 51
162.6313
  0
LINE
  8
0
 10
934.0411
 20
1287.559
 30
0.0
 11
742.9274
 21
761.9944
 31
0.0
  0
LINE
  8
0
 10
742.9274
 20
761.9944
 30
0.0
 11
761.9944
 21
761.9944
 31
0.0
  0
ARC
  8
0
 10
602.1802
 20
410.2158
 30
0.0
 40
386.379
 50
17.36872
 51
65.56762
  0
LINE
  8
0
 10
970.942
 20
525.5566
 30
0.0
 11
1142.996
 21
-4.249573E-03
 31
0.0
  0
LINE
  8
0
 10
1142.996
 20
-4.249573E-03
 30
0.0
 11
970.942
 21
525.5566
 31
0.0
  0
ARC
  8
0
 10
602.1802
 20
410.2158
 30
0.0
 40
386.379
 50
17.36872
 51
65.56762
  0
LINE
  8
0
 10
761.9944
 20
761.9944
 30
0.0
 11
742.9274
 21
761.9944
 31
0.0
  0
LINE
  8
0
 10
742.9274
 20
761.9944
 30
0.0
 11
273.0691
 21
761.9986
 31
0.0
  0
LINE
  8
0
 10
273.0691
 20
761.9986
 30
0.0
 11
254.0021
 21
761.9986
 31
0.0
  0
ARC
  8
0
 10
413.8163
 20
410.22
 30
0.0
 40
386.379
 50
114.4325
 51
162.6314
  0
LINE
  8
0
 10
45.05453
 20
525.5609
 30
0.0
 11
-126.9991
 21
2.288818E-05
 31
0.0
  0
LINE
  8
0
 10
-126.9991
 20
2.288818E-05
 30
0.0
 11
-380.9972
 21
2.288818E-05
 31
0.0
  0
LINE
  8
0
 10
-380.9972
 20
2.288818E-05
 30
0.0
 11
-634.9953
 21
2.288818E-05
 31
0.0
  0
CIRCLE
  8
0
 10
1000
 20
7000
 30
0.0
 40
100
  0
CIRCLE
  8
0
 10
4500
 20
7000
 30
0.0
 40
100
  0
CIRCLE
  8
0
 10
100
 20
100
 30
0.0
 40
125
  0
CIRCLE
  8
0
 10
200
 20
200
 30
0.0
 40
200
  0
CIRCLE
  8
0
 10
300
 20
300
 30
0.0
 40
200
  0
CIRCLE
  8
0
 10
350
 20
350
 30
0.0
 40
200
  0
CIRCLE
  8
0
 10
360
 20
360
 30
0.0
 40
200
  0
CIRCLE
  8
0
 10
370
 20
370
 30
0.0
 40
200
  0
ENDSEC
  0
EOF
