  0
SECTION
  2
ENTITIES
  0
LINE
  8
0
 10
-375.6244
 20
222.25
 30
0.0
 11
-248.9611
 21
-2.539993
 31
0.0
  0
LINE
  8
0
 10
-248.9611
 20
-2.539993
 30
0.0
 11
-122.2979
 21
222.25
 31
0.0
  0
LINE
  8
0
 10
-122.2979
 20
222.25
 30
0.0
 11
4.292839
 21
222.25
 31
0.0
  0
LINE
  8
0
 10
4.292839
 20
222.25
 30
0.0
 11
130.8835
 21
222.25
 31
0.0
  0
LINE
  8
0
 10
130.8835
 20
222.25
 30
0.0
 11
257.5468
 21
-2.539993
 31
0.0
  0
LINE
  8
0
 10
257.5468
 20
-2.539993
 30
0.0
 11
130.8835
 21
-227.33
 31
0.0
  0
LINE
  8
0
 10
130.8835
 20
-227.33
 30
0.0
 11
4.292839
 21
-227.33
 31
0.0
  0
LINE
  8
0
 10
4.292839
 20
-227.33
 30
0.0
 11
-122.2979
 21
-227.33
 31
0.0
  0
LINE
  8
0
 10
-122.2979
 20
-227.33
 30
0.0
 11
-248.8886
 21
-227.33
 31
0.0
  0
LINE
  8
0
 10
-248.8886
 20
-227.33
 30
0.0
 11
-375.4793
 21
-227.33
 31
0.0
  0
LINE
  8
0
 10
-375.6244
 20
-227.33
 30
0.0
 11
-248.9611
 21
-2.539993
 31
0.0
  0
LINE
  8
0
 10
-248.9611
 20
-2.539993
 30
0.0
 11
-122.2979
 21
-227.33
 31
0.0
  0
LINE
  8
0
 10
-122.2979
 20
-227.33
 30
0.0
 11
4.292839
 21
-452.12
 31
0.0
  0
LINE
  8
0
 10
4.292839
 20
-452.12
 30
0.0
 11
130.8835
 21
-227.33
 31
0.0
  0
LINE
  8
0
 10
130.8835
 20
-227.33
 30
0.0
 11
4.292839
 21
-452.12
 31
0.0
  0
LINE
  8
0
 10
4.292839
 20
-452.12
 30
0.0
 11
130.8835
 21
-676.91
 31
0.0
  0
LINE
  8
0
 10
130.8835
 20
-676.91
 30
0.0
 11
4.292839
 21
-452.12
 31
0.0
  0
LINE
  8
0
 10
4.292839
 20
-452.12
 30
0.0
 11
-122.2979
 21
-676.91
 31
0.0
  0
LINE
  8
0
 10
-122.2979
 20
-676.91
 30
0.0
 11
-248.8886
 21
-676.91
 31
0.0
  0
LINE
  8
0
 10
-248.8886
 20
-676.91
 30
0.0
 11
-375.4793
 21
-676.91
 31
0.0
  0
CIRCLE
  8
0
 10
1000
 20
7000
 30
0.0
 40
100
  0
CIRCLE
  8
0
 10
2000
 20
7000
 30
0.0
 40
100
  0
CIRCLE
  8
0
 10
3000
 20
7000
 30
0.0
 40
100
  0
CIRCLE
  8
0
 10
100
 20
100
 30
0.0
 40
125
  0
CIRCLE
  8
0
 10
200
 20
200
 30
0.0
 40
200
  0
CIRCLE
  8
0
 10
300
 20
300
 30
0.0
 40
200
  0
CIRCLE
  8
0
 10
350
 20
350
 30
0.0
 40
200
  0
CIRCLE
  8
0
 10
360
 20
360
 30
0.0
 40
200
  0
CIRCLE
  8
0
 10
370
 20
370
 30
0.0
 40
200
  0
ENDSEC
  0
EOF
