  0
SECTION
  2
ENTITIES
  0
LINE
  8
0
 10
1693.852
 20
1222.81
 30
0.0
 11
1519.252
 21
1225.221
 31
0.0
  0
LINE
  8
0
 10
1519.252
 20
1225.221
 30
0.0
 11
1460.526
 21
1394.283
 31
0.0
  0
LINE
  8
0
 10
1460.526
 20
1394.283
 30
0.0
 11
1402.933
 21
1224.833
 31
0.0
  0
LINE
  8
0
 10
1402.933
 20
1224.833
 30
0.0
 11
1228.354
 21
1221.249
 31
0.0
  0
LINE
  8
0
 10
1228.354
 20
1221.249
 30
0.0
 11
1367.358
 21
1114.083
 31
0.0
  0
LINE
  8
0
 10
1367.358
 20
1114.083
 30
0.0
 11
1315.499
 21
942.7923
 31
0.0
  0
LINE
  8
0
 10
1315.499
 20
942.7923
 30
0.0
 11
1461.692
 21
1046.029
 31
0.0
  0
LINE
  8
0
 10
1461.692
 20
1046.029
 30
0.0
 11
1608.574
 21
943.7739
 31
0.0
  0
LINE
  8
0
 10
1608.574
 20
943.7739
 30
0.0
 11
1555.569
 21
1114.715
 31
0.0
  0
LINE
  8
0
 10
1555.569
 20
1114.715
 30
0.0
 11
1693.852
 21
1222.81
 31
0.0
  0
LINE
  8
0
 10
1693.852
 20
1222.81
 30
0.0
 11
1555.569
 21
1114.715
 31
0.0
  0
LINE
  8
0
 10
1555.569
 20
1114.715
 30
0.0
 11
1608.574
 21
943.7739
 31
0.0
  0
LINE
  8
0
 10
1608.574
 20
943.7739
 30
0.0
 11
1783.153
 21
947.3558
 31
0.0
  0
LINE
  8
0
 10
1783.153
 20
947.3558
 30
0.0
 11
1840.747
 21
1116.807
 31
0.0
  0
LINE
  8
0
 10
1840.747
 20
1116.807
 30
0.0
 11
1899.475
 21
947.7457
 31
0.0
  0
LINE
  8
0
 10
1899.475
 20
947.7457
 30
0.0
 11
2074.074
 21
945.3345
 31
0.0
  0
LINE
  8
0
 10
2074.074
 20
945.3345
 30
0.0
 11
1935.79
 21
837.239
 31
0.0
  0
LINE
  8
0
 10
1935.79
 20
837.239
 30
0.0
 11
1988.798
 21
666.2985
 31
0.0
  0
LINE
  8
0
 10
1988.798
 20
666.2985
 30
0.0
 11
1841.914
 21
768.5526
 31
0.0
  0
LINE
  8
0
 10
1841.914
 20
768.5526
 30
0.0
 11
1693.852
 21
664.0101
 31
0.0
  0
LINE
  8
0
 10
1693.852
 20
664.0101
 30
0.0
 11
1747.581
 21
836.608
 31
0.0
  0
LINE
  8
0
 10
1747.581
 20
836.608
 30
0.0
 11
1608.574
 21
943.7739
 31
0.0
  0
LINE
  8
0
 10
1608.574
 20
943.7739
 30
0.0
 11
1747.581
 21
836.608
 31
0.0
  0
LINE
  8
0
 10
1747.581
 20
836.608
 30
0.0
 11
1693.852
 21
664.0101
 31
0.0
  0
CIRCLE
  8
0
 10
1000
 20
7000
 30
0.0
 40
100
  0
CIRCLE
  8
0
 10
2500
 20
7000
 30
0.0
 40
100
  0
CIRCLE
  8
0
 10
4000
 20
7000
 30
0.0
 40
100
  0
CIRCLE
  8
0
 10
100
 20
100
 30
0.0
 40
128
  0
CIRCLE
  8
0
 10
200
 20
200
 30
0.0
 40
200
  0
CIRCLE
  8
0
 10
300
 20
300
 30
0.0
 40
200
  0
CIRCLE
  8
0
 10
350
 20
350
 30
0.0
 40
200
  0
CIRCLE
  8
0
 10
360
 20
360
 30
0.0
 40
200
  0
CIRCLE
  8
0
 10
370
 20
370
 30
0.0
 40
200
  0
ENDSEC
  0
EOF
