  0
SECTION
  2
ENTITIES
  0
LINE
  8
0
 10
40.94241
 20
.1210746
 30
0.0
 11
147.7109
 21
.1210746
 31
0.0
  0
LINE
  8
0
 10
147.7109
 20
.1210746
 30
0.0
 11
213.9073
 21
-80.72897
 31
0.0
  0
LINE
  8
0
 10
213.9073
 20
-80.72897
 30
0.0
 11
213.9073
 21
-259.4501
 31
0.0
  0
LINE
  8
0
 10
213.9073
 20
-259.4501
 30
0.0
 11
213.9073
 21
-80.72897
 31
0.0
  0
LINE
  8
0
 10
213.9073
 20
-80.72897
 30
0.0
 11
147.7109
 21
.1210746
 31
0.0
  0
LINE
  8
0
 10
147.7109
 20
.1210746
 30
0.0
 11
40.94241
 21
.1210746
 31
0.0
  0
LINE
  8
0
 10
40.94241
 20
.1210746
 30
0.0
 11
-20.03022
 21
-57.32501
 31
0.0
  0
LINE
  8
0
 10
-20.03022
 20
-57.32501
 30
0.0
 11
-81.00287
 21
.1210746
 31
0.0
  0
LINE
  8
0
 10
-81.00287
 20
.1210746
 30
0.0
 11
-187.7713
 21
.1210746
 31
0.0
  0
LINE
  8
0
 10
-187.7713
 20
.1210746
 30
0.0
 11
-253.9678
 21
-80.72897
 31
0.0
  0
LINE
  8
0
 10
-253.9678
 20
-80.72897
 30
0.0
 11
-253.9678
 21
-259.4501
 31
0.0
  0
LINE
  8
0
 10
-253.9678
 20
-259.4501
 30
0.0
 11
-20.03022
 21
-463.1208
 31
0.0
  0
LINE
  8
0
 10
-20.03022
 20
-463.1208
 30
0.0
 11
213.9073
 21
-259.4501
 31
0.0
  0
LINE
  8
0
 10
213.9073
 20
-259.4501
 30
0.0
 11
230.2201
 21
-280.967
 31
0.0
  0
LINE
  8
0
 10
230.2201
 20
-280.967
 30
0.0
 11
464.1575
 21
-484.6375
 31
0.0
  0
LINE
  8
0
 10
464.1575
 20
-484.6375
 30
0.0
 11
464.1575
 21
-663.3586
 31
0.0
  0
LINE
  8
0
 10
464.1575
 20
-663.3586
 30
0.0
 11
397.9613
 21
-744.2087
 31
0.0
  0
LINE
  8
0
 10
397.9613
 20
-744.2087
 30
0.0
 11
291.1927
 21
-744.2087
 31
0.0
  0
LINE
  8
0
 10
291.1927
 20
-744.2087
 30
0.0
 11
230.2201
 21
-686.7627
 31
0.0
  0
LINE
  8
0
 10
230.2201
 20
-686.7627
 30
0.0
 11
169.2476
 21
-744.2087
 31
0.0
  0
LINE
  8
0
 10
169.2476
 20
-744.2087
 30
0.0
 11
62.47898
 21
-744.2087
 31
0.0
  0
LINE
  8
0
 10
62.47898
 20
-744.2087
 30
0.0
 11
-3.717465
 21
-663.3586
 31
0.0
  0
LINE
  8
0
 10
-3.717465
 20
-663.3586
 30
0.0
 11
-3.717465
 21
-484.6375
 31
0.0
  0
LINE
  8
0
 10
-3.717465
 20
-484.6375
 30
0.0
 11
230.2201
 21
-280.967
 31
0.0
  0
LINE
  8
0
 10
230.2201
 20
-280.967
 30
0.0
 11
-3.717465
 21
-484.6375
 31
0.0
  0
LINE
  8
0
 10
-3.717465
 20
-484.6375
 30
0.0
 11
-3.717465
 21
-663.3586
 31
0.0
  0
LINE
  8
0
 10
-3.717465
 20
-663.3586
 30
0.0
 11
62.47898
 21
-744.2087
 31
0.0
  0
LINE
  8
0
 10
62.47898
 20
-744.2087
 30
0.0
 11
40.14664
 21
-774.5789
 31
0.0
  0
CIRCLE
  8
0
 10
1000
 20
7000
 30
0.0
 40
100
  0
CIRCLE
  8
0
 10
2000
 20
7000
 30
0.0
 40
100
  0
CIRCLE
  8
0
 10
3000
 20
7000
 30
0.0
 40
100
  0
CIRCLE
  8
0
 10
100
 20
100
 30
0.0
 40
125
  0
CIRCLE
  8
0
 10
200
 20
200
 30
0.0
 40
200
  0
CIRCLE
  8
0
 10
300
 20
300
 30
0.0
 40
200
  0
CIRCLE
  8
0
 10
350
 20
350
 30
0.0
 40
200
  0
CIRCLE
  8
0
 10
360
 20
360
 30
0.0
 40
200
  0
CIRCLE
  8
0
 10
370
 20
370
 30
0.0
 40
200
  0
ENDSEC
  0
EOF
