  0
SECTION
  2
ENTITIES
  0
ARC
  8
0
 10
135.5078
 20
-44.79741
 30
0.0
 40
873.1745
 50
222.5261
 51
244.82
  0
LINE
  8
0
 10
-235.9978
 20
-834.9982
 30
0.0
 11
253.9985
 21
-1016.001
 31
0.0
  0
LINE
  8
0
 10
254.0013
 20
-1016.001
 30
0.0
 11
254.0013
 21
-1397
 31
0.0
  0
LINE
  8
0
 10
254.0013
 20
-1397
 30
0.0
 11
254.0013
 21
-1651
 31
0.0
  0
LINE
  8
0
 10
254.0013
 20
-1651
 30
0.0
 11
-235.9963
 21
-1831.999
 31
0.0
  0
ARC
  8
0
 10
135.5034
 20
-2622.203
 30
0.0
 40
873.1745
 50
115.1798
 51
137.4736
  0
LINE
  8
0
 10
-507.9957
 20
-2031.997
 30
0.0
 11
-507.9957
 21
-2412.997
 31
0.0
  0
LINE
  8
0
 10
-507.9957
 20
-2412.997
 30
0.0
 11
-507.9957
 21
-2666.997
 31
0.0
  0
CIRCLE
  8
0
 10
1000
 20
6000
 30
0.0
 40
100
  0
CIRCLE
  8
0
 10
2500
 20
8000
 30
0.0
 40
100
  0
CIRCLE
  8
0
 10
4000
 20
6000
 30
0.0
 40
100
  0
CIRCLE
  8
0
 10
100
 20
100
 30
0.0
 40
125
  0
CIRCLE
  8
0
 10
200
 20
200
 30
0.0
 40
200
  0
CIRCLE
  8
0
 10
300
 20
300
 30
0.0
 40
200
  0
CIRCLE
  8
0
 10
350
 20
350
 30
0.0
 40
200
  0
CIRCLE
  8
0
 10
360
 20
360
 30
0.0
 40
200
  0
CIRCLE
  8
0
 10
370
 20
370
 30
0.0
 40
200
  0
ENDSEC
  0
EOF
