  0
SECTION
  2
ENTITIES
  0
LINE
  8
0
 10
253.9994
 20
762.0005
 30
0.0
 11
254.0003
 21
508.0003
 31
0.0
  0
LINE
  8
0
 10
254.0003
 20
508.0003
 30
0.0
 11
254.0012
 21
254.0002
 31
0.0
  0
ARC
  8
0
 10
39.33632
 20
341.3371
 30
0.0
 40
231.7514
 50
310.6711
 51
337.8609
  0
LINE
  8
0
 10
190.3725
 20
165.5622
 30
0.0
 11
0
 21
0
 31
0.0
  0
LINE
  8
0
 10
0
 20
0
 30
0.0
 11
8.850169E-04
 21
-254.0002
 31
0.0
  0
LINE
  8
0
 10
8.850169E-04
 20
-254.0002
 30
0.0
 11
1.770034E-03
 21
-508.0003
 31
0.0
  0
LINE
  8
0
 10
1.770034E-03
 20
-508.0003
 30
0.0
 11
190.3742
 21
-673.5626
 31
0.0
  0
ARC
  8
0
 10
39.33809
 20
-849.3374
 30
0.0
 40
231.7514
 50
22.13938
 51
49.3292
  0
CIRCLE
  8
0
 10
1000
 20
7000
 30
0.0
 40
100
  0
CIRCLE
  8
0
 10
1500
 20
8000
 30
0.0
 40
100
  0
CIRCLE
  8
0
 10
2000
 20
7000
 30
0.0
 40
100
  0
CIRCLE
  8
0
 10
100
 20
100
 30
0.0
 40
125
  0
CIRCLE
  8
0
 10
200
 20
200
 30
0.0
 40
200
  0
CIRCLE
  8
0
 10
300
 20
300
 30
0.0
 40
200
  0
CIRCLE
  8
0
 10
350
 20
350
 30
0.0
 40
200
  0
CIRCLE
  8
0
 10
360
 20
360
 30
0.0
 40
200
  0
CIRCLE
  8
0
 10
370
 20
370
 30
0.0
 40
200
  0
ENDSEC
  0
EOF
