  0
SECTION
  2
ENTITIES
  0
ARC
  8
0
 10
397.38
 20
190.7756
 30
0.0
 40
238.4281
 50
126.8563
 51
233.1434
  0
LINE
  8
0
 10
254.3694
 20
-2.69874E-03
 30
0.0
 11
487.0046
 21
-130.0008
 31
0.0
  0
ARC
  8
0
 10
378.2462
 20
-316.9315
 30
0.0
 40
216.2671
 50
359.9217
 51
59.8087
  0
ARC
  8
0
 10
378.2462
 20
-317.5219
 30
0.0
 40
216.2671
 50
300.1904
 51
7.777816E-02
  0
LINE
  8
0
 10
487.0018
 20
-504.4543
 30
0.0
 11
254.3646
 21
-634.4488
 31
0.0
  0
ARC
  8
0
 10
111.3514
 20
-825.2241
 30
0.0
 40
238.4281
 50
306.8561
 51
53.14327
  0
LINE
  8
0
 10
254.3647
 20
-1016.002
 30
0.0
 11
21.72751
 21
-1145.996
 31
0.0
  0
ARC
  8
0
 10
130.4831
 20
-1332.928
 30
0.0
 40
216.2671
 50
120.1904
 51
180.0778
  0
ARC
  8
0
 10
130.4831
 20
-1333.519
 30
0.0
 40
216.2671
 50
179.9214
 51
239.809
  0
LINE
  8
0
 10
21.72465
 20
-1520.45
 30
0.0
 11
254.3599
 21
-1650.448
 31
0.0
  0
CIRCLE
  8
0
 10
1000
 20
6000
 30
0.0
 40
100
  0
CIRCLE
  8
0
 10
1000
 20
8000
 30
0.0
 40
100
  0
CIRCLE
  8
0
 10
2500
 20
6000
 30
0.0
 40
100
  0
CIRCLE
  8
0
 10
2500
 20
8000
 30
0.0
 40
100
  0
CIRCLE
  8
0
 10
4000
 20
6000
 30
0.0
 40
100
  0
CIRCLE
  8
0
 10
4000
 20
8000
 30
0.0
 40
100
  0
CIRCLE
  8
0
 10
100
 20
100
 30
0.0
 40
125
  0
CIRCLE
  8
0
 10
200
 20
200
 30
0.0
 40
200
  0
CIRCLE
  8
0
 10
300
 20
300
 30
0.0
 40
200
  0
CIRCLE
  8
0
 10
350
 20
350
 30
0.0
 40
200
  0
CIRCLE
  8
0
 10
360
 20
360
 30
0.0
 40
200
  0
CIRCLE
  8
0
 10
370
 20
370
 30
0.0
 40
200
  0
ENDSEC
  0
EOF
