  0
SECTION
  2
ENTITIES
  0
LINE
  8
0
 10
0
 20
78.74
 30
0.0
 11
0
 21
-1.270001
 31
0.0
  0
LINE
  8
0
 10
0
 20
-1.270001
 30
0.0
 11
253.1376
 21
-1.270001
 31
0.0
  0
LINE
  8
0
 10
253.1376
 20
-1.270001
 30
0.0
 11
506.275
 21
-1.270001
 31
0.0
  0
LINE
  8
0
 10
506.275
 20
-1.270001
 30
0.0
 11
759.4126
 21
-1.270001
 31
0.0
  0
LINE
  8
0
 10
759.4126
 20
-1.270001
 30
0.0
 11
759.4126
 21
-81.28
 31
0.0
  0
LINE
  8
0
 10
759.4126
 20
-81.28
 30
0.0
 11
506.275
 21
-81.28
 31
0.0
  0
LINE
  8
0
 10
506.275
 20
-81.28
 30
0.0
 11
253.1376
 21
-81.28
 31
0.0
  0
LINE
  8
0
 10
253.1376
 20
-81.28
 30
0.0
 11
0
 21
-81.28
 31
0.0
  0
CIRCLE
  8
0
 10
1000
 20
7000
 30
0.0
 40
100
  0
CIRCLE
  8
0
 10
2500
 20
7000
 30
0.0
 40
100
  0
CIRCLE
  8
0
 10
100
 20
100
 30
0.0
 40
125
  0
CIRCLE
  8
0
 10
200
 20
200
 30
0.0
 40
200
  0
CIRCLE
  8
0
 10
300
 20
300
 30
0.0
 40
200
  0
CIRCLE
  8
0
 10
350
 20
350
 30
0.0
 40
200
  0
CIRCLE
  8
0
 10
360
 20
360
 30
0.0
 40
200
  0
CIRCLE
  8
0
 10
370
 20
370
 30
0.0
 40
200
  0
ENDSEC
  0
EOF
