  0
SECTION
  2
ENTITIES
  0
ARC
  8
0
 10
-21.08881
 20
388.3232
 30
0.0
 40
121.5209
 50
13.64956
 51
80.00565
  0
LINE
  8
0
 10
97.00002
 20
417
 30
0.0
 11
161.9999
 21
76.00024
 31
0.0
  0
ARC
  8
0
 10
265.5757
 20
107.6969
 30
0.0
 40
108.3172
 50
197.0155
 51
263.8651
  0
LINE
  8
0
 10
254
 20
-1.888243E-05
 30
0.0
 11
380.9999
 21
-7.629395E-06
 31
0.0
  0
LINE
  8
0
 10
380.9999
 20
-7.629395E-06
 30
0.0
 11
507.9999
 21
-7.629395E-06
 31
0.0
  0
LINE
  8
0
 10
508.0013
 20
5.702941E-05
 30
0.0
 11
635.0013
 21
5.702941E-05
 31
0.0
  0
LINE
  8
0
 10
635.0013
 20
5.702941E-05
 30
0.0
 11
762.0012
 21
5.702941E-05
 31
0.0
  0
LINE
  8
0
 10
762.0012
 20
5.702941E-05
 30
0.0
 11
635.0013
 21
5.702941E-05
 31
0.0
  0
LINE
  8
0
 10
635.0013
 20
5.702941E-05
 30
0.0
 11
508.0013
 21
5.702941E-05
 31
0.0
  0
ARC
  8
0
 10
486.9111
 20
-119.6767
 30
0.0
 40
121.5209
 50
13.64956
 51
80.00565
  0
LINE
  8
0
 10
604.9999
 20
-90.99992
 30
0.0
 11
669.9999
 21
-431.9997
 31
0.0
  0
ARC
  8
0
 10
773.5757
 20
-400.303
 30
0.0
 40
108.3172
 50
197.0155
 51
263.8651
  0
LINE
  8
0
 10
761.9999
 20
-507.9999
 30
0.0
 11
634.9999
 21
-507.9999
 31
0.0
  0
LINE
  8
0
 10
634.9999
 20
-507.9999
 30
0.0
 11
507.9999
 21
-507.9999
 31
0.0
  0
LINE
  8
0
 10
507.9999
 20
-507.9999
 30
0.0
 11
380.9999
 21
-507.9999
 31
0.0
  0
LINE
  8
0
 10
380.9999
 20
-507.9999
 30
0.0
 11
254
 21
-507.9999
 31
0.0
  0
LINE
  8
0
 10
253.9986
 20
-508
 30
0.0
 11
126.9986
 21
-508
 31
0.0
  0
LINE
  8
0
 10
126.9986
 20
-508
 30
0.0
 11
-1.342773E-03
 21
-508
 31
0.0
  0
CIRCLE
  8
0
 10
1000
 20
7000
 30
0.0
 40
100
  0
CIRCLE
  8
0
 10
2000
 20
7000
 30
0.0
 40
100
  0
CIRCLE
  8
0
 10
3000
 20
7000
 30
0.0
 40
100
  0
CIRCLE
  8
0
 10
100
 20
100
 30
0.0
 40
125
  0
CIRCLE
  8
0
 10
200
 20
200
 30
0.0
 40
200
  0
CIRCLE
  8
0
 10
300
 20
300
 30
0.0
 40
200
  0
CIRCLE
  8
0
 10
350
 20
350
 30
0.0
 40
200
  0
CIRCLE
  8
0
 10
360
 20
360
 30
0.0
 40
200
  0
CIRCLE
  8
0
 10
370
 20
370
 30
0.0
 40
200
  0
ENDSEC
  0
EOF
