  0
SECTION
  2
ENTITIES
  0
LINE
  8
0
 10
931.3757
 20
1220.253
 30
0.0
 11
1067.963
 21
960.1946
 31
0.0
  0
LINE
  8
0
 10
1067.963
 20
960.1946
 30
0.0
 11
865.1707
 21
737.6619
 31
0.0
  0
LINE
  8
0
 10
865.1707
 20
737.6619
 30
0.0
 11
1161.915
 21
788.5435
 31
0.0
  0
LINE
  8
0
 10
1161.915
 20
788.5435
 30
0.0
 11
1307.347
 21
533.3234
 31
0.0
  0
LINE
  8
0
 10
1307.347
 20
533.3234
 30
0.0
 11
1354.197
 21
824.8494
 31
0.0
  0
LINE
  8
0
 10
1354.197
 20
824.8494
 30
0.0
 11
1649.06
 21
885.6843
 31
0.0
  0
LINE
  8
0
 10
1649.06
 20
885.6843
 30
0.0
 11
1379.083
 21
1018.941
 31
0.0
  0
LINE
  8
0
 10
1379.083
 20
1018.941
 30
0.0
 11
1412.348
 21
1318.172
 31
0.0
  0
LINE
  8
0
 10
1412.348
 20
1318.172
 30
0.0
 11
1710.521
 21
1276.51
 31
0.0
  0
LINE
  8
0
 10
1710.521
 20
1276.51
 30
0.0
 11
1771.568
 21
989.1743
 31
0.0
  0
LINE
  8
0
 10
1771.568
 20
989.1743
 30
0.0
 11
1904.753
 21
1252.697
 31
0.0
  0
LINE
  8
0
 10
1904.753
 20
1252.697
 30
0.0
 11
2204.161
 21
1221.095
 31
0.0
  0
LINE
  8
0
 10
2204.161
 20
1221.095
 30
0.0
 11
2340.749
 21
961.0332
 31
0.0
  0
LINE
  8
0
 10
2340.749
 20
961.0332
 30
0.0
 11
2137.955
 21
738.5027
 31
0.0
  0
LINE
  8
0
 10
2137.955
 20
738.5027
 30
0.0
 11
1844.145
 21
598.2883
 31
0.0
  0
LINE
  8
0
 10
1844.145
 20
598.2883
 30
0.0
 11
1621.872
 21
792.6498
 31
0.0
  0
LINE
  8
0
 10
1621.872
 20
792.6498
 30
0.0
 11
1673.02
 21
503.3877
 31
0.0
  0
LINE
  8
0
 10
1673.02
 20
503.3877
 30
0.0
 11
1412.213
 21
352.9701
 31
0.0
  0
LINE
  8
0
 10
1412.213
 20
352.9701
 30
0.0
 11
1202.049
 21
137.3898
 31
0.0
  0
LINE
  8
0
 10
1202.049
 20
137.3898
 30
0.0
 11
931.241
 21
255.0531
 31
0.0
  0
LINE
  8
0
 10
931.241
 20
255.0531
 30
0.0
 11
728.5109
 21
477.6397
 31
0.0
  0
LINE
  8
0
 10
728.5109
 20
477.6397
 30
0.0
 11
865.1707
 21
737.6619
 31
0.0
  0
LINE
  8
0
 10
865.1707
 20
737.6619
 30
0.0
 11
728.5109
 21
477.6397
 31
0.0
  0
LINE
  8
0
 10
728.5109
 20
477.6397
 30
0.0
 11
931.241
 21
255.0531
 31
0.0
  0
CIRCLE
  8
0
 10
1000
 20
7000
 30
0.0
 40
100
  0
CIRCLE
  8
0
 10
3500
 20
7000
 30
0.0
 40
100
  0
CIRCLE
  8
0
 10
6000
 20
7000
 30
0.0
 40
100
  0
CIRCLE
  8
0
 10
100
 20
100
 30
0.0
 40
128
  0
CIRCLE
  8
0
 10
200
 20
200
 30
0.0
 40
200
  0
CIRCLE
  8
0
 10
300
 20
300
 30
0.0
 40
200
  0
CIRCLE
  8
0
 10
350
 20
350
 30
0.0
 40
200
  0
CIRCLE
  8
0
 10
360
 20
360
 30
0.0
 40
200
  0
CIRCLE
  8
0
 10
370
 20
370
 30
0.0
 40
200
  0
ENDSEC
  0
EOF
