  0
SECTION
  2
ENTITIES
  0
ARC
  8
0
 10
4737.219
 20
2451.26
 30
0.0
 40
190.5
 50
180
 51
270
  0
ARC
  8
0
 10
4737.219
 20
2070.26
 30
0.0
 40
190.5
 50
1.468581E-04
 51
89.99999
  0
ARC
  8
0
 10
5118.219
 20
2070.26
 30
0.0
 40
190.5
 50
180
 51
270
  0
ARC
  8
0
 10
5118.219
 20
1689.26
 30
0.0
 40
190.5
 50
1.468581E-04
 51
89.99999
  0
ARC
  8
0
 10
5118.219
 20
1689.261
 30
0.0
 40
190.5
 50
270
 51
359.9998
  0
ARC
  8
0
 10
5118.219
 20
1308.261
 30
0.0
 40
190.5
 50
90.00005
 51
180.0001
  0
ARC
  8
0
 10
4737.219
 20
1308.261
 30
0.0
 40
190.5
 50
270
 51
359.9998
  0
ARC
  8
0
 10
4737.219
 20
927.261
 30
0.0
 40
190.5
 50
90.00005
 51
180.0002
  0
CIRCLE
  8
0
 10
1000
 20
7000
 30
0.0
 40
100
  0
CIRCLE
  8
0
 10
1000
 20
8000
 30
0.0
 40
100
  0
CIRCLE
  8
0
 10
2500
 20
7000
 30
0.0
 40
100
  0
CIRCLE
  8
0
 10
2500
 20
8000
 30
0.0
 40
100
  0
CIRCLE
  8
0
 10
4000
 20
7000
 30
0.0
 40
100
  0
CIRCLE
  8
0
 10
4000
 20
8000
 30
0.0
 40
100
  0
CIRCLE
  8
0
 10
100
 20
100
 30
0.0
 40
125
  0
CIRCLE
  8
0
 10
200
 20
200
 30
0.0
 40
200
  0
CIRCLE
  8
0
 10
300
 20
300
 30
0.0
 40
200
  0
CIRCLE
  8
0
 10
350
 20
350
 30
0.0
 40
200
  0
CIRCLE
  8
0
 10
360
 20
360
 30
0.0
 40
200
  0
CIRCLE
  8
0
 10
370
 20
370
 30
0.0
 40
200
  0
ENDSEC
  0
EOF
