  0
SECTION
  2
ENTITIES
  0
LINE
  8
0
 10
-.6543761
 20
304.946
 30
0.0
 11
75.97715
 21
228.527
 31
0.0
  0
LINE
  8
0
 10
75.97713
 20
228.527
 30
0.0
 11
152.6087
 21
152.1079
 31
0.0
  0
LINE
  8
0
 10
152.6087
 20
152.1079
 30
0.0
 11
228.913
 21
76.05392
 31
0.0
  0
LINE
  8
0
 10
228.913
 20
76.05392
 30
0.0
 11
304.7374
 21
-2.747898E-05
 31
0.0
  0
LINE
  8
0
 10
304.7374
 20
-2.747898E-05
 30
0.0
 11
228.913
 21
-76.05397
 31
0.0
  0
LINE
  8
0
 10
228.913
 20
-76.05397
 30
0.0
 11
153.0886
 21
-2.290228E-05
 31
0.0
  0
LINE
  8
0
 10
153.0886
 20
-2.290228E-05
 30
0.0
 11
76.78424
 21
76.05392
 31
0.0
  0
LINE
  8
0
 10
75.97713
 20
75.6888
 30
0.0
 11
.1527252
 21
151.7428
 31
0.0
  0
LINE
  8
0
 10
.1527252
 20
151.7428
 30
0.0
 11
-76.15163
 21
227.7967
 31
0.0
  0
LINE
  8
0
 10
-76.15163
 20
227.7967
 30
0.0
 11
.1527252
 21
151.7428
 31
0.0
  0
LINE
  8
0
 10
.1527252
 20
151.7428
 30
0.0
 11
75.97713
 21
75.6888
 31
0.0
  0
LINE
  8
0
 10
75.97713
 20
75.6888
 30
0.0
 11
-.3272109
 21
-.3651564
 31
0.0
  0
LINE
  8
0
 10
-.3272109
 20
-.3651564
 30
0.0
 11
-76.15163
 21
-76.41911
 31
0.0
  0
LINE
  8
0
 10
-76.15163
 20
-76.41911
 30
0.0
 11
-.3272109
 21
-.3651564
 31
0.0
  0
LINE
  8
0
 10
.4797349
 20
-3.648777E-05
 30
0.0
 11
-76.15161
 21
76.41903
 31
0.0
  0
LINE
  8
0
 10
-76.15161
 20
76.41903
 30
0.0
 11
-152.7833
 21
152.8382
 31
0.0
  0
LINE
  8
0
 10
-152.7833
 20
152.8382
 30
0.0
 11
-229.4149
 21
229.2572
 31
0.0
  0
LINE
  8
0
 10
-229.4147
 20
229.2572
 30
0.0
 11
-306.0462
 21
305.6763
 31
0.0
  0
LINE
  8
0
 10
-306.0462
 20
305.6763
 30
0.0
 11
-381.8707
 21
229.6225
 31
0.0
  0
LINE
  8
0
 10
-381.8707
 20
230.3526
 30
0.0
 11
-305.2391
 21
153.9337
 31
0.0
  0
LINE
  8
0
 10
-306.5262
 20
153.5685
 30
0.0
 11
-230.2219
 21
77.51456
 31
0.0
  0
LINE
  8
0
 10
-228.6076
 20
76.78422
 30
0.0
 11
-151.976
 21
.3651285
 31
0.0
  0
LINE
  8
0
 10
-151.9761
 20
.3651285
 30
0.0
 11
-75.3446
 21
-76.05398
 31
0.0
  0
LINE
  8
0
 10
-77.28592
 20
-76.41909
 30
0.0
 11
-153.5902
 21
-152.4731
 31
0.0
  0
LINE
  8
0
 10
-153.5902
 20
-152.4731
 30
0.0
 11
-229.4147
 21
-228.527
 31
0.0
  0
LINE
  8
0
 10
-229.4147
 20
-228.527
 30
0.0
 11
-153.5903
 21
-304.581
 31
0.0
  0
LINE
  8
0
 10
-152.7832
 20
-304.9461
 30
0.0
 11
-76.95875
 21
-228.8922
 31
0.0
  0
LINE
  8
0
 10
-76.95875
 20
-228.8922
 30
0.0
 11
-.6544036
 21
-152.8382
 31
0.0
  0
LINE
  8
0
 10
.1527016
 20
-152.4731
 30
0.0
 11
75.97713
 21
-76.41911
 31
0.0
  0
LINE
  8
0
 10
75.97713
 20
-76.41911
 30
0.0
 11
152.2814
 21
-.3651472
 31
0.0
  0
LINE
  8
0
 10
152.2814
 20
-.3651472
 30
0.0
 11
75.97713
 21
-76.41911
 31
0.0
  0
LINE
  8
0
 10
75.97713
 20
-75.68887
 30
0.0
 11
152.6087
 21
-152.1079
 31
0.0
  0
LINE
  8
0
 10
152.6087
 20
-152.1079
 30
0.0
 11
228.913
 21
-76.05397
 31
0.0
  0
LINE
  8
0
 10
228.913
 20
-76.05397
 30
0.0
 11
304.7374
 21
-2.747898E-05
 31
0.0
  0
LINE
  8
0
 10
304.7374
 20
-2.747898E-05
 30
0.0
 11
381.0417
 21
76.05392
 31
0.0
  0
LINE
  8
0
 10
381.0417
 20
76.05392
 30
0.0
 11
456.8661
 21
152.1079
 31
0.0
  0
LINE
  8
0
 10
456.8661
 20
152.1079
 30
0.0
 11
533.1705
 21
76.05391
 31
0.0
  0
LINE
  8
0
 10
532.3633
 20
75.68879
 30
0.0
 11
456.0592
 21
-.3651701
 31
0.0
  0
LINE
  8
0
 10
456.0592
 20
-.3651701
 30
0.0
 11
380.2346
 21
-76.41911
 31
0.0
  0
LINE
  8
0
 10
379.4275
 20
-76.78426
 30
0.0
 11
303.1232
 21
-152.8382
 31
0.0
  0
LINE
  8
0
 10
303.1232
 20
-152.8382
 30
0.0
 11
379.4275
 21
-76.78426
 31
0.0
  0
LINE
  8
0
 10
379.4275
 20
-76.78426
 30
0.0
 11
456.0592
 21
-153.2033
 31
0.0
  0
LINE
  8
0
 10
456.0592
 20
-153.2033
 30
0.0
 11
532.6907
 21
-229.6225
 31
0.0
  0
LINE
  8
0
 10
532.6907
 20
-229.6225
 30
0.0
 11
608.9949
 21
-305.6764
 31
0.0
  0
LINE
  8
0
 10
608.9949
 20
-305.6764
 30
0.0
 11
684.8193
 21
-381.7303
 31
0.0
  0
LINE
  8
0
 10
684.8193
 20
-381.7303
 30
0.0
 11
608.9949
 21
-457.7843
 31
0.0
  0
LINE
  8
0
 10
608.9949
 20
-457.7843
 30
0.0
 11
533.1705
 21
-381.7303
 31
0.0
  0
LINE
  8
0
 10
533.1705
 20
-381.7303
 30
0.0
 11
456.8661
 21
-305.6764
 31
0.0
  0
LINE
  8
0
 10
456.8661
 20
-305.6764
 30
0.0
 11
533.1705
 21
-381.7303
 31
0.0
  0
LINE
  8
0
 10
533.4977
 20
-380.6349
 30
0.0
 11
457.6732
 21
-456.6889
 31
0.0
  0
LINE
  8
0
 10
457.6732
 20
-456.6889
 30
0.0
 11
381.8488
 21
-532.7427
 31
0.0
  0
LINE
  8
0
 10
381.0417
 20
-533.1078
 30
0.0
 11
304.7374
 21
-609.162
 31
0.0
  0
LINE
  8
0
 10
304.7374
 20
-609.162
 30
0.0
 11
228.913
 21
-685.2159
 31
0.0
  0
LINE
  8
0
 10
228.1059
 20
-684.8507
 30
0.0
 11
152.2814
 21
-608.7967
 31
0.0
  0
LINE
  8
0
 10
152.2815
 20
-608.7967
 30
0.0
 11
228.1059
 21
-532.7427
 31
0.0
  0
LINE
  8
0
 10
228.1059
 20
-532.7427
 30
0.0
 11
304.4102
 21
-456.6889
 31
0.0
  0
LINE
  8
0
 10
305.5445
 20
-456.6889
 30
0.0
 11
381.3689
 21
-380.6349
 31
0.0
  0
LINE
  8
0
 10
381.3689
 20
-380.6349
 30
0.0
 11
457.1935
 21
-304.581
 31
0.0
  0
LINE
  8
0
 10
456.8661
 20
-305.6764
 30
0.0
 11
380.2346
 21
-229.2573
 31
0.0
  0
LINE
  8
0
 10
380.2346
 20
-229.2573
 30
0.0
 11
303.6031
 21
-152.8382
 31
0.0
  0
LINE
  8
0
 10
303.1232
 20
-152.8382
 30
0.0
 11
227.2988
 21
-228.8922
 31
0.0
  0
LINE
  8
0
 10
229.2402
 20
-228.5271
 30
0.0
 11
152.6087
 21
-152.1079
 31
0.0
  0
LINE
  8
0
 10
152.6087
 20
-152.1079
 30
0.0
 11
229.2402
 21
-228.5271
 31
0.0
  0
LINE
  8
0
 10
229.2402
 20
-228.5271
 30
0.0
 11
305.5445
 21
-304.581
 31
0.0
  0
LINE
  8
0
 10
305.5445
 20
-304.581
 30
0.0
 11
381.3689
 21
-380.6349
 31
0.0
  0
LINE
  8
0
 10
381.3689
 20
-380.6349
 30
0.0
 11
305.5445
 21
-456.6889
 31
0.0
  0
LINE
  8
0
 10
305.5445
 20
-456.6889
 30
0.0
 11
229.7201
 21
-380.6349
 31
0.0
  0
LINE
  8
0
 10
229.7201
 20
-380.6349
 30
0.0
 11
153.4158
 21
-304.581
 31
0.0
  0
LINE
  8
0
 10
153.4158
 20
-304.581
 30
0.0
 11
76.78425
 21
-228.1619
 31
0.0
  0
LINE
  8
0
 10
76.78426
 20
-228.1619
 30
0.0
 11
.1527153
 21
-151.7428
 31
0.0
  0
LINE
  8
0
 10
.1527153
 20
-151.7428
 30
0.0
 11
76.78426
 21
-228.1619
 31
0.0
  0
LINE
  8
0
 10
75.49723
 20
-228.527
 30
0.0
 11
-.3272018
 21
-304.581
 31
0.0
  0
LINE
  8
0
 10
-1.461477
 20
-304.581
 30
0.0
 11
-77.76582
 21
-380.6349
 31
0.0
  0
LINE
  8
0
 10
-77.76582
 20
-380.6349
 30
0.0
 11
-153.5902
 21
-456.6889
 31
0.0
  0
LINE
  8
0
 10
-153.5902
 20
-456.6889
 30
0.0
 11
-229.4147
 21
-532.7427
 31
0.0
  0
LINE
  8
0
 10
-229.4147
 20
-532.7427
 30
0.0
 11
-153.5903
 21
-608.7967
 31
0.0
  0
LINE
  8
0
 10
-152.7832
 20
-609.1619
 30
0.0
 11
-76.95875
 21
-533.1078
 31
0.0
  0
LINE
  8
0
 10
-76.95874
 20
-533.1078
 30
0.0
 11
-1.134307
 21
-457.054
 31
0.0
  0
LINE
  8
0
 10
-1.134307
 20
-457.054
 30
0.0
 11
75.17004
 21
-381.0001
 31
0.0
  0
LINE
  8
0
 10
75.97713
 20
-380.6349
 30
0.0
 11
151.8016
 21
-304.581
 31
0.0
  0
LINE
  8
0
 10
151.8016
 20
-304.581
 30
0.0
 11
75.97713
 21
-380.6349
 31
0.0
  0
LINE
  8
0
 10
75.17004
 20
-381.0001
 30
0.0
 11
-1.134307
 21
-457.054
 31
0.0
  0
CIRCLE
  8
0
 10
1000
 20
7000
 30
0.0
 40
100
  0
CIRCLE
  8
0
 10
2500
 20
7000
 30
0.0
 40
100
  0
CIRCLE
  8
0
 10
4000
 20
7000
 30
0.0
 40
100
  0
CIRCLE
  8
0
 10
100
 20
100
 30
0.0
 40
125
  0
CIRCLE
  8
0
 10
200
 20
200
 30
0.0
 40
200
  0
CIRCLE
  8
0
 10
300
 20
300
 30
0.0
 40
200
  0
CIRCLE
  8
0
 10
350
 20
350
 30
0.0
 40
200
  0
CIRCLE
  8
0
 10
360
 20
360
 30
0.0
 40
200
  0
CIRCLE
  8
0
 10
370
 20
370
 30
0.0
 40
200
  0
ENDSEC
  0
EOF
