  0
SECTION
  2
ENTITIES
  0
ARC
  8
0
 10
-78.42209
 20
262.8561
 30
0.0
 40
400.3528
 50
317.814
 51
358.7329
  0
LINE
  8
0
 10
218.2255
 20
-5.998014
 30
0.0
 11
-50.37567
 21
-248.0063
 31
0.0
  0
ARC
  8
0
 10
246.2592
 20
-516.8744
 30
0.0
 40
400.3528
 50
137.8111
 51
178.73
  0
ARC
  8
0
 10
246.2592
 20
-499.1254
 30
0.0
 40
400.3528
 50
181.2702
 51
222.1891
  0
LINE
  8
0
 10
-50.37567
 20
-767.9919
 30
0.0
 11
218.2255
 21
-1010
 31
0.0
  0
ARC
  8
0
 10
-78.42209
 20
-1278.854
 30
0.0
 40
400.3528
 50
1.267405
 51
42.18631
  0
CIRCLE
  8
0
 10
1000
 20
7000
 30
0.0
 40
100
  0
CIRCLE
  8
0
 10
2000
 20
8000
 30
0.0
 40
100
  0
CIRCLE
  8
0
 10
3000
 20
7000
 30
0.0
 40
100
  0
CIRCLE
  8
0
 10
100
 20
100
 30
0.0
 40
128
  0
CIRCLE
  8
0
 10
200
 20
200
 30
0.0
 40
200
  0
CIRCLE
  8
0
 10
300
 20
300
 30
0.0
 40
200
  0
CIRCLE
  8
0
 10
350
 20
350
 30
0.0
 40
200
  0
CIRCLE
  8
0
 10
360
 20
360
 30
0.0
 40
200
  0
CIRCLE
  8
0
 10
370
 20
370
 30
0.0
 40
200
  0
ENDSEC
  0
EOF
