  0
SECTION
  2
ENTITIES
  0
LINE
  8
0
 10
315.6848
 20
1162.398
 30
0.0
 11
495.3446
 21
855.7086
 31
0.0
  0
LINE
  8
0
 10
495.3445
 20
855.7086
 30
0.0
 11
675.0043
 21
1162.398
 31
0.0
  0
LINE
  8
0
 10
675.0043
 20
1162.398
 30
0.0
 11
495.3445
 21
855.7086
 31
0.0
  0
LINE
  8
0
 10
495.3446
 20
855.7086
 30
0.0
 11
495.3446
 21
780.8
 31
0.0
  0
LINE
  8
0
 10
495.3446
 20
780.8
 30
0.0
 11
704.3453
 21
1143.664
 31
0.0
  0
LINE
  8
0
 10
704.3453
 20
1143.664
 30
0.0
 11
1004.142
 21
1143.664
 31
0.0
  0
LINE
  8
0
 10
1004.142
 20
1143.664
 30
0.0
 11
495.3446
 21
780.8
 31
0.0
  0
LINE
  8
0
 10
495.3446
 20
780.8
 30
0.0
 11
795.1423
 21
780.8
 31
0.0
  0
LINE
  8
0
 10
795.1423
 20
780.8
 30
0.0
 11
1004.142
 21
1143.664
 31
0.0
  0
LINE
  8
0
 10
1004.142
 20
1143.664
 30
0.0
 11
1004.142
 21
1062.224
 31
0.0
  0
LINE
  8
0
 10
1004.142
 20
1062.224
 30
0.0
 11
829.0742
 21
762.3478
 31
0.0
  0
LINE
  8
0
 10
829.0742
 20
762.3478
 30
0.0
 11
1004.142
 21
462.4723
 31
0.0
  0
LINE
  8
0
 10
1004.142
 20
462.4723
 30
0.0
 11
1179.21
 21
762.3478
 31
0.0
  0
LINE
  8
0
 10
1179.21
 20
762.3478
 30
0.0
 11
1004.142
 21
1062.224
 31
0.0
  0
LINE
  8
0
 10
1004.142
 20
1062.224
 30
0.0
 11
1004.142
 21
1143.664
 31
0.0
  0
LINE
  8
0
 10
1004.142
 20
1143.664
 30
0.0
 11
1213.141
 21
780.8
 31
0.0
  0
LINE
  8
0
 10
1213.141
 20
780.8
 30
0.0
 11
1512.939
 21
780.8003
 31
0.0
  0
LINE
  8
0
 10
1512.939
 20
780.8
 30
0.0
 11
1004.142
 21
1143.664
 31
0.0
  0
LINE
  8
0
 10
1004.142
 20
1143.664
 30
0.0
 11
1303.938
 21
1143.664
 31
0.0
  0
LINE
  8
0
 10
1303.938
 20
1143.664
 30
0.0
 11
1512.939
 21
780.8
 31
0.0
  0
LINE
  8
0
 10
1512.939
 20
780.8
 30
0.0
 11
1512.939
 21
762.3478
 31
0.0
  0
LINE
  8
0
 10
1512.939
 20
762.3478
 30
0.0
 11
1512.939
 21
743.8959
 31
0.0
  0
LINE
  8
0
 10
1512.939
 20
743.8957
 30
0.0
 11
1213.141
 21
743.8959
 31
0.0
  0
LINE
  8
0
 10
1213.141
 20
743.8959
 30
0.0
 11
1004.142
 21
381.0333
 31
0.0
  0
LINE
  8
0
 10
1004.142
 20
381.0333
 30
0.0
 11
1512.939
 21
743.8959
 31
0.0
  0
LINE
  8
0
 10
1512.939
 20
743.8959
 30
0.0
 11
1303.938
 21
381.0333
 31
0.0
  0
LINE
  8
0
 10
1303.938
 20
381.0333
 30
0.0
 11
1004.142
 21
381.0333
 31
0.0
  0
LINE
  8
0
 10
1004.142
 20
381.0333
 30
0.0
 11
1004.142
 21
462.4723
 31
0.0
  0
LINE
  8
0
 10
1004.142
 20
462.4723
 30
0.0
 11
1004.142
 21
381.0333
 31
0.0
  0
LINE
  8
0
 10
1004.142
 20
381.0333
 30
0.0
 11
795.1423
 21
743.8959
 31
0.0
  0
LINE
  8
0
 10
795.1423
 20
743.8959
 30
0.0
 11
495.3446
 21
743.8959
 31
0.0
  0
LINE
  8
0
 10
495.3446
 20
743.8959
 30
0.0
 11
1004.142
 21
381.0333
 31
0.0
  0
LINE
  8
0
 10
1004.142
 20
381.0333
 30
0.0
 11
704.3453
 21
381.0333
 31
0.0
  0
LINE
  8
0
 10
704.3453
 20
381.0333
 30
0.0
 11
495.3446
 21
743.8959
 31
0.0
  0
LINE
  8
0
 10
495.3446
 20
743.8959
 30
0.0
 11
495.3446
 21
668.9873
 31
0.0
  0
LINE
  8
0
 10
495.3445
 20
668.9873
 30
0.0
 11
675.0043
 21
362.298
 31
0.0
  0
LINE
  8
0
 10
675.0043
 20
362.298
 30
0.0
 11
495.3445
 21
668.9873
 31
0.0
  0
LINE
  8
0
 10
495.3446
 20
668.9873
 30
0.0
 11
315.6848
 21
362.298
 31
0.0
  0
CIRCLE
  8
0
 10
1000
 20
7000
 30
0.0
 40
100
  0
CIRCLE
  8
0
 10
3000
 20
7000
 30
0.0
 40
100
  0
CIRCLE
  8
0
 10
5000
 20
7000
 30
0.0
 40
100
  0
CIRCLE
  8
0
 10
100
 20
100
 30
0.0
 40
128
  0
CIRCLE
  8
0
 10
200
 20
200
 30
0.0
 40
186
  0
CIRCLE
  8
0
 10
300
 20
300
 30
0.0
 40
205
  0
CIRCLE
  8
0
 10
350
 20
350
 30
0.0
 40
200
  0
CIRCLE
  8
0
 10
360
 20
360
 30
0.0
 40
200
  0
CIRCLE
  8
0
 10
370
 20
370
 30
0.0
 40
200
  0
ENDSEC
  0
EOF
