  0
SECTION
  2
ENTITIES
  0
LINE
  8
0
 10
931.3757
 20
1220.253
 30
0.0
 11
1067.963
 21
960.1946
 31
0.0
  0
LINE
  8
0
 10
1067.963
 20
960.1946
 30
0.0
 11
865.1707
 21
737.6619
 31
0.0
  0
LINE
  8
0
 10
865.1707
 20
737.6619
 30
0.0
 11
1067.963
 21
960.1946
 31
0.0
  0
LINE
  8
0
 10
1067.963
 20
960.1946
 30
0.0
 11
931.3757
 21
1220.253
 31
0.0
  0
LINE
  8
0
 10
931.3757
 20
1220.253
 30
0.0
 11
1202.184
 21
1102.59
 31
0.0
  0
LINE
  8
0
 10
1202.184
 20
1102.59
 30
0.0
 11
1412.348
 21
1318.17
 31
0.0
  0
LINE
  8
0
 10
1412.348
 20
1318.172
 30
0.0
 11
1379.083
 21
1018.941
 31
0.0
  0
LINE
  8
0
 10
1379.083
 20
1018.941
 30
0.0
 11
1649.06
 21
885.6843
 31
0.0
  0
LINE
  8
0
 10
1649.06
 20
885.6843
 30
0.0
 11
1354.197
 21
824.8494
 31
0.0
  0
LINE
  8
0
 10
1354.197
 20
824.8494
 30
0.0
 11
1307.347
 21
533.3234
 31
0.0
  0
LINE
  8
0
 10
1307.347
 20
533.3234
 30
0.0
 11
1161.915
 21
788.5435
 31
0.0
  0
LINE
  8
0
 10
1161.915
 20
788.5435
 30
0.0
 11
865.1707
 21
737.6619
 31
0.0
  0
LINE
  8
0
 10
865.1707
 20
737.6619
 30
0.0
 11
571.3607
 21
597.4476
 31
0.0
  0
LINE
  8
0
 10
571.3607
 20
597.4476
 30
0.0
 11
349.0876
 21
791.809
 31
0.0
  0
LINE
  8
0
 10
349.0876
 20
791.809
 30
0.0
 11
400.2356
 21
502.5469
 31
0.0
  0
LINE
  8
0
 10
400.2356
 20
502.5469
 30
0.0
 11
139.4286
 21
352.1293
 31
0.0
  0
LINE
  8
0
 10
139.4286
 20
352.1293
 30
0.0
 11
437.6026
 21
310.4688
 31
0.0
  0
LINE
  8
0
 10
437.6026
 20
310.4688
 30
0.0
 11
498.6507
 21
23.13499
 31
0.0
  0
LINE
  8
0
 10
498.6507
 20
23.13499
 30
0.0
 11
631.8337
 21
286.6558
 31
0.0
  0
LINE
  8
0
 10
631.8337
 20
286.6558
 30
0.0
 11
931.2447
 21
255.0524
 31
0.0
  0
LINE
  8
0
 10
931.241
 20
255.0531
 30
0.0
 11
728.5109
 21
477.6397
 31
0.0
  0
LINE
  8
0
 10
728.5109
 20
477.6397
 30
0.0
 11
865.1707
 21
737.6619
 31
0.0
  0
LINE
  8
0
 10
865.1707
 20
737.6619
 30
0.0
 11
728.5109
 21
477.6397
 31
0.0
  0
LINE
  8
0
 10
728.5109
 20
477.6397
 30
0.0
 11
931.241
 21
255.0531
 31
0.0
  0
CIRCLE
  8
0
 10
1000
 20
7000
 30
0.0
 40
100
  0
CIRCLE
  8
0
 10
3500
 20
7000
 30
0.0
 40
100
  0
CIRCLE
  8
0
 10
6000
 20
7000
 30
0.0
 40
100
  0
CIRCLE
  8
0
 10
100
 20
100
 30
0.0
 40
128
  0
CIRCLE
  8
0
 10
200
 20
200
 30
0.0
 40
200
  0
CIRCLE
  8
0
 10
300
 20
300
 30
0.0
 40
200
  0
CIRCLE
  8
0
 10
350
 20
350
 30
0.0
 40
200
  0
CIRCLE
  8
0
 10
360
 20
360
 30
0.0
 40
200
  0
CIRCLE
  8
0
 10
370
 20
370
 30
0.0
 40
200
  0
ENDSEC
  0
EOF
