  0
SECTION
  2
ENTITIES
  0
LINE
  8
0
 10
254
 20
761.9975
 30
0.0
 11
46.0004
 21
589.9985
 31
0.0
  0
ARC
  8
0
 10
292.2933
 20
357.0622
 30
0.0
 40
338.9978
 50
136.5966
 51
175.9503
  0
ARC
  8
0
 10
292.2941
 20
404.9337
 30
0.0
 40
338.9978
 50
184.0479
 51
223.4016
  0
LINE
  8
0
 10
45.99313
 20
172.006
 30
0.0
 11
253.9868
 21
-3.0136E-04
 31
0.0
  0
LINE
  8
0
 10
253.9848
 20
-1.524238E-03
 30
0.0
 11
304.6353
 21
66.13884
 31
0.0
  0
LINE
  8
0
 10
304.6353
 20
66.13884
 30
0.0
 11
389.9973
 21
175.9975
 31
0.0
  0
ARC
  8
0
 10
25.2592
 20
419.5475
 30
0.0
 40
438.5778
 50
326.2676
 51
354.9582
  0
ARC
  8
0
 10
25.2585
 20
342.4652
 30
0.0
 40
438.5778
 50
5.040992
 51
33.73158
  0
LINE
  8
0
 10
389.9999
 20
586.0081
 30
0.0
 11
304.6392
 21
695.8677
 31
0.0
  0
LINE
  8
0
 10
304.6392
 20
695.8677
 30
0.0
 11
176.9709
 21
589.9985
 31
0.0
  0
ARC
  8
0
 10
423.2637
 20
357.0622
 30
0.0
 40
338.9978
 50
136.5966
 51
175.9503
  0
ARC
  8
0
 10
423.2646
 20
404.9337
 30
0.0
 40
338.9978
 50
184.0479
 51
223.4016
  0
LINE
  8
0
 10
176.9636
 20
172.006
 30
0.0
 11
304.6353
 21
66.13884
 31
0.0
  0
LINE
  8
0
 10
304.6353
 20
66.13884
 30
0.0
 11
384.9572
 21
-3.0136E-04
 31
0.0
  0
ARC
  8
0
 10
262.7954
 20
-127.0088
 30
0.0
 40
176.2074
 50
313.8807
 51
46.11267
  0
LINE
  8
0
 10
384.9352
 20
-254.0164
 30
0.0
 11
304.6039
 21
-320.1462
 31
0.0
  0
LINE
  8
0
 10
304.6192
 20
-320.1436
 30
0.0
 11
253.9696
 21
-254.0026
 31
0.0
  0
LINE
  8
0
 10
253.9694
 20
-254.0025
 30
0.0
 11
303.8654
 21
-197.887
 31
0.0
  0
ARC
  8
0
 10
216.5306
 20
-126.993
 30
0.0
 40
112.4871
 50
320.9319
 51
39.05579
  0
LINE
  8
0
 10
303.8805
 20
-56.11755
 30
0.0
 11
253.9845
 21
-2.092798E-03
 31
0.0
  0
ARC
  8
0
 10
441.1714
 20
-127.0133
 30
0.0
 40
226.2097
 50
145.8421
 51
214.1513
  0
CIRCLE
  8
0
 10
1000
 20
7000
 30
0.0
 40
100
  0
CIRCLE
  8
0
 10
2000
 20
7000
 30
0.0
 40
100
  0
CIRCLE
  8
0
 10
3000
 20
7000
 30
0.0
 40
100
  0
CIRCLE
  8
0
 10
100
 20
100
 30
0.0
 40
125
  0
CIRCLE
  8
0
 10
200
 20
200
 30
0.0
 40
200
  0
CIRCLE
  8
0
 10
300
 20
300
 30
0.0
 40
200
  0
CIRCLE
  8
0
 10
350
 20
350
 30
0.0
 40
200
  0
CIRCLE
  8
0
 10
360
 20
360
 30
0.0
 40
200
  0
CIRCLE
  8
0
 10
370
 20
370
 30
0.0
 40
200
  0
ENDSEC
  0
EOF
