  0
SECTION
  2
ENTITIES
  0
LINE
  8
0
 10
0
 20
381
 30
0.0
 11
0
 21
255.1403
 31
0.0
  0
LINE
  8
0
 10
0
 20
255.1403
 30
0.0
 11
0
 21
129.2805
 31
0.0
  0
LINE
  8
0
 10
0
 20
129.2805
 30
0.0
 11
251.7195
 21
129.2805
 31
0.0
  0
LINE
  8
0
 10
251.7195
 20
129.2805
 30
0.0
 11
503.4389
 21
129.2805
 31
0.0
  0
LINE
  8
0
 10
503.4389
 20
129.2805
 30
0.0
 11
503.4389
 21
109.5204
 31
0.0
  0
LINE
  8
0
 10
503.4389
 20
109.5204
 30
0.0
 11
251.7195
 21
109.5204
 31
0.0
  0
LINE
  8
0
 10
251.7195
 20
109.5204
 30
0.0
 11
0
 21
109.5204
 31
0.0
  0
LINE
  8
0
 10
0
 20
109.5204
 30
0.0
 11
0
 21
89.76031
 31
0.0
  0
LINE
  8
0
 10
0
 20
89.76031
 30
0.0
 11
251.7195
 21
89.76031
 31
0.0
  0
LINE
  8
0
 10
251.7195
 20
89.76031
 30
0.0
 11
503.4389
 21
89.76031
 31
0.0
  0
LINE
  8
0
 10
503.4389
 20
89.76031
 30
0.0
 11
503.4389
 21
70.00021
 31
0.0
  0
LINE
  8
0
 10
503.4389
 20
70.00021
 30
0.0
 11
251.7195
 21
70.00021
 31
0.0
  0
LINE
  8
0
 10
251.7195
 20
70.00021
 30
0.0
 11
0
 21
70.00021
 31
0.0
  0
LINE
  8
0
 10
0
 20
70.00021
 30
0.0
 11
0
 21
50.24012
 31
0.0
  0
LINE
  8
0
 10
0
 20
50.24012
 30
0.0
 11
251.7195
 21
50.24012
 31
0.0
  0
LINE
  8
0
 10
251.7195
 20
50.24012
 30
0.0
 11
503.4389
 21
50.24012
 31
0.0
  0
LINE
  8
0
 10
503.4389
 20
50.24012
 30
0.0
 11
503.4389
 21
30.48001
 31
0.0
  0
LINE
  8
0
 10
503.4389
 20
30.48001
 30
0.0
 11
251.7195
 21
30.48001
 31
0.0
  0
LINE
  8
0
 10
251.7195
 20
30.48001
 30
0.0
 11
0
 21
30.48001
 31
0.0
  0
CIRCLE
  8
0
 10
1000
 20
7000
 30
0.0
 40
100
  0
CIRCLE
  8
0
 10
2000
 20
7000
 30
0.0
 40
100
  0
CIRCLE
  8
0
 10
3000
 20
7000
 30
0.0
 40
100
  0
CIRCLE
  8
0
 10
100
 20
100
 30
0.0
 40
130
  0
CIRCLE
  8
0
 10
200
 20
200
 30
0.0
 40
200
  0
CIRCLE
  8
0
 10
300
 20
300
 30
0.0
 40
200
  0
CIRCLE
  8
0
 10
350
 20
350
 30
0.0
 40
200
  0
CIRCLE
  8
0
 10
360
 20
360
 30
0.0
 40
200
  0
CIRCLE
  8
0
 10
370
 20
370
 30
0.0
 40
200
  0
ENDSEC
  0
EOF
