  0
SECTION
  2
ENTITIES
  0
LINE
  8
0
 10
166.9952
 20
595.2736
 30
0.0
 11
-254
 21
174.6956
 31
0.0
  0
LINE
  8
0
 10
-254
 20
174.6956
 30
0.0
 11
-166.9952
 21
87.42211
 31
0.0
  0
LINE
  8
0
 10
-166.9564
 20
87.34782
 30
0.0
 11
254
 21
508
 31
0.0
  0
LINE
  8
0
 10
254
 20
508
 30
0.0
 11
341.0436
 21
595.2349
 31
0.0
  0
LINE
  8
0
 10
341.0436
 20
595.2349
 30
0.0
 11
761.774
 21
174.4697
 31
0.0
  0
LINE
  8
0
 10
761.774
 20
174.4697
 30
0.0
 11
674.7303
 21
87.23487
 31
0.0
  0
LINE
  8
0
 10
674.7692
 20
87.16058
 30
0.0
 11
254
 21
508
 31
0.0
  0
LINE
  8
0
 10
254
 20
508
 30
0.0
 11
166.9952
 21
595.2736
 31
0.0
  0
LINE
  8
0
 10
166.9952
 20
595.2736
 30
0.0
 11
254
 21
508
 31
0.0
  0
LINE
  8
0
 10
254
 20
508
 30
0.0
 11
674.7692
 21
87.16058
 31
0.0
  0
LINE
  8
0
 10
674.7303
 20
87.23487
 30
0.0
 11
253.774
 21
-333.4173
 31
0.0
  0
LINE
  8
0
 10
253.8128
 20
-333.4916
 30
0.0
 11
166.7692
 21
-420.7264
 31
0.0
  0
LINE
  8
0
 10
166.7692
 20
-420.7264
 30
0.0
 11
253.8128
 21
-333.4916
 31
0.0
  0
LINE
  8
0
 10
253.774
 20
-333.4173
 30
0.0
 11
674.7303
 21
87.23487
 31
0.0
  0
LINE
  8
0
 10
674.7692
 20
87.16058
 30
0.0
 11
761.774
 21
-.1129563
 31
0.0
  0
LINE
  8
0
 10
761.774
 20
-.1129563
 30
0.0
 11
340.8176
 21
-420.7651
 31
0.0
  0
LINE
  8
0
 10
340.8176
 20
-420.7651
 30
0.0
 11
253.8128
 21
-333.4916
 31
0.0
  0
LINE
  8
0
 10
253.774
 20
-333.4173
 30
0.0
 11
-166.9952
 21
87.42211
 31
0.0
  0
LINE
  8
0
 10
-166.9564
 20
87.34782
 30
0.0
 11
-254
 21
.1130066
 31
0.0
  0
LINE
  8
0
 10
-254
 20
.1130066
 30
0.0
 11
166.7692
 21
-420.7264
 31
0.0
  0
CIRCLE
  8
0
 10
1000
 20
7000
 30
0.0
 40
100
  0
CIRCLE
  8
0
 10
3000
 20
7000
 30
0.0
 40
100
  0
CIRCLE
  8
0
 10
5000
 20
7000
 30
0.0
 40
100
  0
CIRCLE
  8
0
 10
100
 20
100
 30
0.0
 40
125
  0
CIRCLE
  8
0
 10
200
 20
200
 30
0.0
 40
200
  0
CIRCLE
  8
0
 10
300
 20
300
 30
0.0
 40
200
  0
CIRCLE
  8
0
 10
350
 20
350
 30
0.0
 40
200
  0
CIRCLE
  8
0
 10
360
 20
360
 30
0.0
 40
200
  0
CIRCLE
  8
0
 10
370
 20
370
 30
0.0
 40
200
  0
ENDSEC
  0
EOF
