  0
SECTION
  2
ENTITIES
  0
LINE
  8
0
 10
0
 20
-254
 30
0.0
 11
381
 21
-1053.974
 31
0.0
  0
LINE
  8
0
 10
381
 20
-1053.974
 30
0.0
 11
381
 21
-799.9739
 31
0.0
  0
LINE
  8
0
 10
381
 20
-799.9739
 30
0.0
 11
381
 21
-545.974
 31
0.0
  0
LINE
  8
0
 10
381
 20
-545.974
 30
0.0
 11
381
 21
-799.9739
 31
0.0
  0
LINE
  8
0
 10
381
 20
-799.9739
 30
0.0
 11
381
 21
-1053.974
 31
0.0
  0
LINE
  8
0
 10
381
 20
-1053.974
 30
0.0
 11
381
 21
-1307.974
 31
0.0
  0
LINE
  8
0
 10
381
 20
-1307.974
 30
0.0
 11
381
 21
-1561.974
 31
0.0
  0
LINE
  8
0
 10
381
 20
-1561.974
 30
0.0
 11
381
 21
-1307.974
 31
0.0
  0
LINE
  8
0
 10
381
 20
-1307.974
 30
0.0
 11
381
 21
-1053.974
 31
0.0
  0
LINE
  8
0
 10
381
 20
-1053.974
 30
0.0
 11
762
 21
-254
 31
0.0
  0
LINE
  8
0
 10
762
 20
-254
 30
0.0
 11
762
 21
-508
 31
0.0
  0
LINE
  8
0
 10
762
 20
-508
 30
0.0
 11
762
 21
-762
 31
0.0
  0
LINE
  8
0
 10
762
 20
-762
 30
0.0
 11
762
 21
-1016
 31
0.0
  0
LINE
  8
0
 10
762
 20
-1016
 30
0.0
 11
762
 21
-1270
 31
0.0
  0
LINE
  8
0
 10
762
 20
-1270
 30
0.0
 11
381
 21
-2069.973
 31
0.0
  0
LINE
  8
0
 10
381
 20
-2069.973
 30
0.0
 11
381
 21
-1815.973
 31
0.0
  0
LINE
  8
0
 10
381
 20
-1815.973
 30
0.0
 11
381
 21
-1561.974
 31
0.0
  0
LINE
  8
0
 10
381
 20
-1561.974
 30
0.0
 11
381
 21
-1815.973
 31
0.0
  0
LINE
  8
0
 10
381
 20
-1815.973
 30
0.0
 11
381
 21
-2069.973
 31
0.0
  0
LINE
  8
0
 10
381
 20
-2069.973
 30
0.0
 11
381
 21
-2323.973
 31
0.0
  0
LINE
  8
0
 10
381
 20
-2323.973
 30
0.0
 11
381
 21
-2577.973
 31
0.0
  0
LINE
  8
0
 10
381
 20
-2577.973
 30
0.0
 11
381
 21
-2323.973
 31
0.0
  0
LINE
  8
0
 10
381
 20
-2323.973
 30
0.0
 11
381
 21
-2069.973
 31
0.0
  0
LINE
  8
0
 10
381
 20
-2069.973
 30
0.0
 11
0
 21
-1270
 31
0.0
  0
LINE
  8
0
 10
0
 20
-1270
 30
0.0
 11
0
 21
-1524
 31
0.0
  0
LINE
  8
0
 10
0
 20
-1524
 30
0.0
 11
0
 21
-1778
 31
0.0
  0
LINE
  8
0
 10
0
 20
-1778
 30
0.0
 11
0
 21
-2032
 31
0.0
  0
LINE
  8
0
 10
0
 20
-2032
 30
0.0
 11
0
 21
-2286
 31
0.0
  0
CIRCLE
  8
0
 10
1000
 20
7000
 30
0.0
 40
100
  0
CIRCLE
  8
0
 10
2500
 20
7000
 30
0.0
 40
100
  0
CIRCLE
  8
0
 10
4000
 20
7000
 30
0.0
 40
100
  0
CIRCLE
  8
0
 10
100
 20
100
 30
0.0
 40
125
  0
CIRCLE
  8
0
 10
200
 20
200
 30
0.0
 40
200
  0
CIRCLE
  8
0
 10
300
 20
300
 30
0.0
 40
200
  0
CIRCLE
  8
0
 10
350
 20
350
 30
0.0
 40
200
  0
CIRCLE
  8
0
 10
360
 20
360
 30
0.0
 40
200
  0
CIRCLE
  8
0
 10
370
 20
370
 30
0.0
 40
200
  0
ENDSEC
  0
EOF
