  0
SECTION
  2
ENTITIES
  0
LINE
  8
0
 10
-.0633519
 20
228.6
 30
0.0
 11
-3.519553E-03
 21
85.26965
 31
0.0
  0
LINE
  8
0
 10
-3.519553E-03
 20
85.26965
 30
0.0
 11
123.5976
 21
12.70001
 31
0.0
  0
LINE
  8
0
 10
123.5976
 20
12.70001
 30
0.0
 11
247.1987
 21
85.26965
 31
0.0
  0
LINE
  8
0
 10
247.1987
 20
85.26965
 30
0.0
 11
123.5976
 21
12.70001
 31
0.0
  0
LINE
  8
0
 10
123.5976
 20
12.70001
 30
0.0
 11
123.6574
 21
-130.6304
 31
0.0
  0
LINE
  8
0
 10
123.6574
 20
-130.6304
 30
0.0
 11
247.2585
 21
-203.2
 31
0.0
  0
LINE
  8
0
 10
247.2585
 20
-203.2
 30
0.0
 11
123.6574
 21
-130.6304
 31
0.0
  0
LINE
  8
0
 10
123.6574
 20
-130.6304
 30
0.0
 11
.0563128
 21
-203.2
 31
0.0
  0
CIRCLE
  8
0
 10
1000
 20
7000
 30
0.0
 40
100
  0
CIRCLE
  8
0
 10
1500
 20
7000
 30
0.0
 40
100
  0
CIRCLE
  8
0
 10
2000
 20
7000
 30
0.0
 40
100
  0
CIRCLE
  8
0
 10
100
 20
100
 30
0.0
 40
125
  0
CIRCLE
  8
0
 10
200
 20
200
 30
0.0
 40
200
  0
CIRCLE
  8
0
 10
300
 20
300
 30
0.0
 40
200
  0
CIRCLE
  8
0
 10
350
 20
350
 30
0.0
 40
200
  0
CIRCLE
  8
0
 10
360
 20
360
 30
0.0
 40
200
  0
CIRCLE
  8
0
 10
370
 20
370
 30
0.0
 40
200
  0
ENDSEC
  0
EOF
