  0
SECTION
  2
ENTITIES
  0
LINE
  8
0
 10
0
 20
69.85
 30
0.0
 11
0
 21
0
 31
0.0
  0
LINE
  8
0
 10
0
 20
0
 30
0.0
 11
509.2839
 21
0
 31
0.0
  0
LINE
  8
0
 10
509.2839
 20
0
 30
0.0
 11
1018.568
 21
0
 31
0.0
  0
LINE
  8
0
 10
1018.568
 20
0
 30
0.0
 11
1527.852
 21
0
 31
0.0
  0
LINE
  8
0
 10
1527.852
 20
0
 30
0.0
 11
2037.135
 21
0
 31
0.0
  0
LINE
  8
0
 10
2037.135
 20
0
 30
0.0
 11
2037.135
 21
-69.85
 31
0.0
  0
LINE
  8
0
 10
2037.135
 20
-69.85
 30
0.0
 11
1527.852
 21
-69.85
 31
0.0
  0
LINE
  8
0
 10
1527.852
 20
-69.85
 30
0.0
 11
1018.568
 21
-69.85
 31
0.0
  0
LINE
  8
0
 10
1018.568
 20
-69.85
 30
0.0
 11
509.2839
 21
-69.85
 31
0.0
  0
LINE
  8
0
 10
509.2839
 20
-69.85
 30
0.0
 11
0
 21
-69.85
 31
0.0
  0
CIRCLE
  8
0
 10
1000
 20
7000
 30
0.0
 40
100
  0
CIRCLE
  8
0
 10
5000
 20
7000
 30
0.0
 40
100
  0
CIRCLE
  8
0
 10
100
 20
100
 30
0.0
 40
125
  0
CIRCLE
  8
0
 10
200
 20
200
 30
0.0
 40
200
  0
CIRCLE
  8
0
 10
300
 20
300
 30
0.0
 40
200
  0
CIRCLE
  8
0
 10
350
 20
350
 30
0.0
 40
200
  0
CIRCLE
  8
0
 10
360
 20
360
 30
0.0
 40
200
  0
CIRCLE
  8
0
 10
370
 20
370
 30
0.0
 40
200
  0
ENDSEC
  0
EOF
