  0
SECTION
  2
ENTITIES
  0
LINE
  8
0
 10
-589.5305
 20
579.12
 30
0.0
 11
-252.4395
 21
579.12
 31
0.0
  0
LINE
  8
0
 10
-252.4395
 20
579.12
 30
0.0
 11
-83.89398
 21
289.56
 31
0.0
  0
LINE
  8
0
 10
-83.89398
 20
289.56
 30
0.0
 11
253.197
 21
289.56
 31
0.0
  0
LINE
  8
0
 10
253.197
 20
289.56
 30
0.0
 11
421.7426
 21
579.12
 31
0.0
  0
LINE
  8
0
 10
421.7426
 20
579.12
 30
0.0
 11
253.197
 21
289.56
 31
0.0
  0
LINE
  8
0
 10
253.197
 20
289.56
 30
0.0
 11
421.7426
 21
3.814697E-06
 31
0.0
  0
LINE
  8
0
 10
421.7426
 20
3.814697E-06
 30
0.0
 11
253.197
 21
289.56
 31
0.0
  0
LINE
  8
0
 10
253.197
 20
289.56
 30
0.0
 11
-83.89398
 21
289.56
 31
0.0
  0
LINE
  8
0
 10
-83.89398
 20
289.56
 30
0.0
 11
-252.4395
 21
3.814697E-06
 31
0.0
  0
LINE
  8
0
 10
-252.4395
 20
3.814697E-06
 30
0.0
 11
-589.5305
 21
3.814697E-06
 31
0.0
  0
CIRCLE
  8
0
 10
1000
 20
7000
 30
0.0
 40
100
  0
CIRCLE
  8
0
 10
3000
 20
7000
 30
0.0
 40
100
  0
CIRCLE
  8
0
 10
5000
 20
7000
 30
0.0
 40
100
  0
CIRCLE
  8
0
 10
100
 20
100
 30
0.0
 40
125
  0
CIRCLE
  8
0
 10
200
 20
200
 30
0.0
 40
200
  0
CIRCLE
  8
0
 10
300
 20
300
 30
0.0
 40
200
  0
CIRCLE
  8
0
 10
350
 20
350
 30
0.0
 40
200
  0
CIRCLE
  8
0
 10
360
 20
360
 30
0.0
 40
200
  0
CIRCLE
  8
0
 10
370
 20
370
 30
0.0
 40
200
  0
ENDSEC
  0
EOF
