  0
SECTION
  2
ENTITIES
  0
ARC
  8
0
 10
-741.7466
 20
821.9037
 30
0.0
 40
997.5503
 50
333.7694
 51
356.5575
  0
ARC
  8
0
 10
1047.903
 20
-59.89748
 30
0.0
 40
997.5503
 50
153.7696
 51
176.5577
  0
ARC
  8
0
 10
1047.903
 20
59.8903
 30
0.0
 40
997.5503
 50
183.4419
 51
206.23
  0
ARC
  8
0
 10
-741.754
 20
-821.8947
 30
0.0
 40
997.5503
 50
3.442216
 51
26.23031
  0
CIRCLE
  8
0
 10
1000
 20
7000
 30
0.0
 40
100
  0
CIRCLE
  8
0
 10
2000
 20
8000
 30
0.0
 40
100
  0
CIRCLE
  8
0
 10
3000
 20
7000
 30
0.0
 40
100
  0
CIRCLE
  8
0
 10
100
 20
100
 30
0.0
 40
125
  0
CIRCLE
  8
0
 10
200
 20
200
 30
0.0
 40
200
  0
CIRCLE
  8
0
 10
300
 20
300
 30
0.0
 40
200
  0
CIRCLE
  8
0
 10
350
 20
350
 30
0.0
 40
200
  0
CIRCLE
  8
0
 10
360
 20
360
 30
0.0
 40
200
  0
CIRCLE
  8
0
 10
370
 20
370
 30
0.0
 40
200
  0
ENDSEC
  0
EOF
