  0
SECTION
  2
ENTITIES
  0
LINE
  8
0
 10
-507.0849
 20
149.86
 30
0.0
 11
-253.3716
 21
-10.15999
 31
0.0
  0
LINE
  8
0
 10
-253.3716
 20
-10.15999
 30
0.0
 11
-507.0849
 21
149.86
 31
0.0
  0
LINE
  8
0
 10
-507.0849
 20
149.86
 30
0.0
 11
-126.5148
 21
-10.15999
 31
0.0
  0
LINE
  8
0
 10
-126.5148
 20
-10.15999
 30
0.0
 11
254.0553
 21
-170.18
 31
0.0
  0
LINE
  8
0
 10
254.0553
 20
-170.18
 30
0.0
 11
.3420062
 21
-10.15999
 31
0.0
  0
LINE
  8
0
 10
.3420062
 20
-10.15999
 30
0.0
 11
254.0553
 21
149.86
 31
0.0
  0
LINE
  8
0
 10
254.0553
 20
149.86
 30
0.0
 11
-126.5148
 21
-10.15999
 31
0.0
  0
LINE
  8
0
 10
-126.5148
 20
-10.15999
 30
0.0
 11
-507.0849
 21
-170.18
 31
0.0
  0
LINE
  8
0
 10
-507.0849
 20
-170.18
 30
0.0
 11
-253.3716
 21
-10.15999
 31
0.0
  0
LINE
  8
0
 10
-253.3716
 20
-10.15999
 30
0.0
 11
-507.0849
 21
-170.18
 31
0.0
  0
CIRCLE
  8
0
 10
1000
 20
7000
 30
0.0
 40
100
  0
CIRCLE
  8
0
 10
2500
 20
7000
 30
0.0
 40
100
  0
CIRCLE
  8
0
 10
100
 20
100
 30
0.0
 40
125
  0
CIRCLE
  8
0
 10
200
 20
200
 30
0.0
 40
200
  0
CIRCLE
  8
0
 10
300
 20
300
 30
0.0
 40
200
  0
CIRCLE
  8
0
 10
350
 20
350
 30
0.0
 40
200
  0
CIRCLE
  8
0
 10
360
 20
360
 30
0.0
 40
200
  0
CIRCLE
  8
0
 10
370
 20
370
 30
0.0
 40
200
  0
ENDSEC
  0
EOF
