  0
SECTION
  2
ENTITIES
  0
LINE
  8
0
 10
169.3967
 20
546.1
 30
0.0
 11
169.3967
 21
-14.57467
 31
0.0
  0
LINE
  8
0
 10
169.3967
 20
-14.57467
 30
0.0
 11
673.6473
 21
-266.7
 31
0.0
  0
LINE
  8
0
 10
673.6473
 20
-266.7
 30
0.0
 11
1177.898
 21
-14.57467
 31
0.0
  0
LINE
  8
0
 10
1177.898
 20
-14.57467
 30
0.0
 11
673.6473
 21
-266.7
 31
0.0
  0
LINE
  8
0
 10
673.6473
 20
-266.7
 30
0.0
 11
673.6473
 21
-827.3747
 31
0.0
  0
LINE
  8
0
 10
673.6473
 20
-827.3747
 30
0.0
 11
1177.898
 21
-1079.5
 31
0.0
  0
LINE
  8
0
 10
1177.898
 20
-1079.5
 30
0.0
 11
673.6473
 21
-827.3747
 31
0.0
  0
LINE
  8
0
 10
673.6473
 20
-827.3747
 30
0.0
 11
169.3967
 21
-1079.5
 31
0.0
  0
CIRCLE
  8
0
 10
1000
 20
7000
 30
0.0
 40
100
  0
CIRCLE
  8
0
 10
3000
 20
7000
 30
0.0
 40
100
  0
CIRCLE
  8
0
 10
100
 20
100
 30
0.0
 40
125
  0
CIRCLE
  8
0
 10
200
 20
200
 30
0.0
 40
200
  0
CIRCLE
  8
0
 10
300
 20
300
 30
0.0
 40
200
  0
CIRCLE
  8
0
 10
350
 20
350
 30
0.0
 40
200
  0
CIRCLE
  8
0
 10
360
 20
360
 30
0.0
 40
200
  0
CIRCLE
  8
0
 10
370
 20
370
 30
0.0
 40
200
  0
ENDSEC
  0
EOF
