  0
SECTION
  2
ENTITIES
  0
ARC
  8
0
 10
-426.9533
 20
935.1846
 30
0.0
 40
782.288
 50
310.2057
 51
346.218
  0
ARC
  8
0
 10
519.8827
 20
-216.8118
 30
0.0
 40
709.04
 50
128.547
 51
164.3885
  0
ARC
  8
0
 10
2467.182
 20
-365.2733
 30
0.0
 40
2651.972
 50
172.6493
 51
184.0177
  0
ARC
  8
0
 10
1043.096
 20
-817.8796
 30
0.0
 40
1250.17
 50
151.0636
 51
167.6776
  0
ARC
  8
0
 10
663.6906
 20
-622.3511
 30
0.0
 40
823.6206
 50
137.0339
 51
150.1971
  0
ARC
  8
0
 10
-456.0047
 20
538.5757
 30
0.0
 40
791.6973
 50
310.7708
 51
324.4628
  0
ARC
  8
0
 10
-486.6767
 20
587.663
 30
0.0
 40
845.4767
 50
322.9641
 51
345.6706
  0
ARC
  8
0
 10
-326.3169
 20
503.2326
 30
0.0
 40
670.5342
 50
349.2717
 51
10.67994
  0
ARC
  8
0
 10
619.21
 20
687.6636
 30
0.0
 40
292.8551
 50
167.9459
 51
191.8557
  0
ARC
  8
0
 10
619.21
 20
687.6636
 30
0.0
 40
292.8551
 50
167.9459
 51
191.8557
  0
ARC
  8
0
 10
1152.123
 20
835.3521
 30
0.0
 40
845.4767
 50
194.2322
 51
216.9386
  0
ARC
  8
0
 10
809.6238
 20
547.2938
 30
0.0
 40
399.3567
 50
213.4348
 51
236.0632
  0
ARC
  8
0
 10
201.1945
 20
-281.0763
 30
0.0
 40
629.0023
 50
8.049318
 51
52.20504
  0
ARC
  8
0
 10
-5635.609
 20
-473.8245
 30
0.0
 40
6465.71
 50
359.6794
 51
2.489306
  0
ARC
  8
0
 10
-938.2798
 20
-885.6749
 30
0.0
 40
1807.738
 50
4.844761
 51
11.99322
  0
ARC
  8
0
 10
-938.2798
 20
-885.6749
 30
0.0
 40
1807.738
 50
4.844761
 51
11.99322
  0
ARC
  8
0
 10
194.0786
 20
-684.488
 30
0.0
 40
659.4163
 50
15.3407
 51
53.49555
  0
ARC
  8
0
 10
809.3095
 20
176.8847
 30
0.0
 40
399.3567
 50
213.4348
 51
236.0632
  0
ARC
  8
0
 10
1151.815
 20
464.9422
 30
0.0
 40
845.4767
 50
194.2322
 51
216.9386
  0
ARC
  8
0
 10
618.8938
 20
317.2491
 30
0.0
 40
292.8551
 50
167.9459
 51
191.8557
  0
ARC
  8
0
 10
618.8938
 20
317.2491
 30
0.0
 40
292.8551
 50
167.9459
 51
191.8557
  0
ARC
  8
0
 10
-377.3158
 20
126.8575
 30
0.0
 40
721.4537
 50
349.8344
 51
10.39905
  0
CIRCLE
  8
0
 10
1000
 20
7000
 30
0.0
 40
100
  0
CIRCLE
  8
0
 10
3000
 20
7000
 30
0.0
 40
100
  0
CIRCLE
  8
0
 10
5000
 20
7000
 30
0.0
 40
100
  0
CIRCLE
  8
0
 10
100
 20
100
 30
0.0
 40
125
  0
CIRCLE
  8
0
 10
200
 20
200
 30
0.0
 40
200
  0
CIRCLE
  8
0
 10
300
 20
300
 30
0.0
 40
200
  0
CIRCLE
  8
0
 10
350
 20
350
 30
0.0
 40
200
  0
CIRCLE
  8
0
 10
360
 20
360
 30
0.0
 40
200
  0
CIRCLE
  8
0
 10
370
 20
370
 30
0.0
 40
200
  0
ENDSEC
  0
EOF
