  0
SECTION
  2
ENTITIES
  0
ARC
  8
0
 10
359.6033
 20
283.9654
 30
0.0
 40
139.6659
 50
355.8142
 51
60.54937
  0
ARC
  8
0
 10
247.8865
 20
308.2244
 30
0.0
 40
253.3641
 50
299.6722
 51
352.1845
  0
ARC
  8
0
 10
247.8865
 20
308.2244
 30
0.0
 40
253.3641
 50
299.6722
 51
352.1845
  0
ARC
  8
0
 10
359.6033
 20
283.9654
 30
0.0
 40
139.6659
 50
355.8142
 51
60.54937
  0
ARC
  8
0
 10
376.524
 20
320.7956
 30
0.0
 40
99.33279
 50
58.6028
 51
109.1961
  0
ARC
  8
0
 10
389.1703
 20
305.3029
 30
0.0
 40
118.3206
 50
112.5146
 51
160.4274
  0
ARC
  8
0
 10
166.2027
 20
305.3029
 30
0.0
 40
118.3206
 50
19.57249
 51
67.48531
  0
ARC
  8
0
 10
178.8491
 20
320.7956
 30
0.0
 40
99.33279
 50
70.80389
 51
121.3974
  0
ARC
  8
0
 10
195.7698
 20
283.9654
 30
0.0
 40
139.6659
 50
119.4508
 51
184.1859
  0
ARC
  8
0
 10
307.4867
 20
308.2244
 30
0.0
 40
253.3641
 50
187.8156
 51
240.3279
  0
ARC
  8
0
 10
85.23772
 20
-90.52949
 30
0.0
 40
203.1687
 50
18.69529
 51
61.53823
  0
ARC
  8
0
 10
470.1354
 20
-90.52939
 30
0.0
 40
203.1687
 50
118.4617
 51
161.3047
  0
ARC
  8
0
 10
441.9812
 20
-33.53473
 30
0.0
 40
139.6659
 50
119.4508
 51
184.1859
  0
ARC
  8
0
 10
553.6982
 20
-9.275624
 30
0.0
 40
253.3641
 50
187.8156
 51
240.3279
  0
ARC
  8
0
 10
553.6982
 20
-9.275624
 30
0.0
 40
253.3641
 50
187.8156
 51
240.3279
  0
ARC
  8
0
 10
441.9812
 20
-33.53473
 30
0.0
 40
139.6659
 50
119.4508
 51
184.1859
  0
ARC
  8
0
 10
425.0605
 20
3.295441
 30
0.0
 40
99.33279
 50
70.80389
 51
121.3974
  0
ARC
  8
0
 10
412.414
 20
-12.19711
 30
0.0
 40
118.3206
 50
19.57249
 51
67.48531
  0
ARC
  8
0
 10
635.3817
 20
-12.19723
 30
0.0
 40
118.3206
 50
112.5146
 51
160.4274
  0
ARC
  8
0
 10
622.7355
 20
3.295441
 30
0.0
 40
99.33279
 50
58.6028
 51
109.1961
  0
ARC
  8
0
 10
605.8147
 20
-33.53473
 30
0.0
 40
139.6659
 50
355.8142
 51
60.54937
  0
ARC
  8
0
 10
494.0978
 20
-9.275624
 30
0.0
 40
253.3641
 50
299.6722
 51
352.1845
  0
ARC
  8
0
 10
716.3467
 20
-408.0294
 30
0.0
 40
203.1687
 50
118.4617
 51
161.3047
  0
ARC
  8
0
 10
331.449
 20
-408.0295
 30
0.0
 40
203.1687
 50
18.69529
 51
61.53823
  0
CIRCLE
  8
0
 10
1000
 20
7000
 30
0.0
 40
100
  0
CIRCLE
  8
0
 10
2000
 20
7000
 30
0.0
 40
100
  0
CIRCLE
  8
0
 10
3000
 20
7000
 30
0.0
 40
100
  0
CIRCLE
  8
0
 10
100
 20
100
 30
0.0
 40
127
  0
CIRCLE
  8
0
 10
200
 20
200
 30
0.0
 40
200
  0
CIRCLE
  8
0
 10
300
 20
300
 30
0.0
 40
200
  0
CIRCLE
  8
0
 10
350
 20
350
 30
0.0
 40
200
  0
CIRCLE
  8
0
 10
360
 20
360
 30
0.0
 40
200
  0
CIRCLE
  8
0
 10
370
 20
370
 30
0.0
 40
200
  0
ENDSEC
  0
EOF
