  0
SECTION
  2
ENTITIES
  0
LINE
  8
0
 10
-761.5203
 20
2548.89
 30
0.0
 11
-761.5203
 21
1699.26
 31
0.0
  0
LINE
  8
0
 10
-761.5203
 20
1699.26
 30
0.0
 11
-253.8401
 21
2295.05
 31
0.0
  0
LINE
  8
0
 10
-253.8401
 20
2295.05
 30
0.0
 11
-253.8401
 21
1445.42
 31
0.0
  0
LINE
  8
0
 10
-253.8401
 20
1445.42
 30
0.0
 11
-253.8401
 21
2295.05
 31
0.0
  0
LINE
  8
0
 10
-253.8401
 20
2295.05
 30
0.0
 11
253.8401
 21
1699.26
 31
0.0
  0
LINE
  8
0
 10
253.8401
 20
1699.26
 30
0.0
 11
253.8401
 21
849.63
 31
0.0
  0
LINE
  8
0
 10
253.8401
 20
849.63
 30
0.0
 11
-253.8401
 21
1445.42
 31
0.0
  0
LINE
  8
0
 10
-253.8401
 20
1445.42
 30
0.0
 11
-253.8401
 21
595.7899
 31
0.0
  0
LINE
  8
0
 10
-253.8401
 20
595.7899
 30
0.0
 11
-253.8401
 21
1445.42
 31
0.0
  0
LINE
  8
0
 10
-253.8401
 20
1445.42
 30
0.0
 11
-761.5203
 21
849.63
 31
0.0
  0
CIRCLE
  8
0
 10
1000
 20
7000
 30
0.0
 40
100
  0
CIRCLE
  8
0
 10
3000
 20
7000
 30
0.0
 40
100
  0
CIRCLE
  8
0
 10
5000
 20
7000
 30
0.0
 40
100
  0
CIRCLE
  8
0
 10
100
 20
100
 30
0.0
 40
125
  0
CIRCLE
  8
0
 10
200
 20
200
 30
0.0
 40
200
  0
CIRCLE
  8
0
 10
300
 20
300
 30
0.0
 40
200
  0
CIRCLE
  8
0
 10
350
 20
350
 30
0.0
 40
200
  0
CIRCLE
  8
0
 10
360
 20
360
 30
0.0
 40
200
  0
CIRCLE
  8
0
 10
370
 20
370
 30
0.0
 40
200
  0
ENDSEC
  0
EOF
