  0
SECTION
  2
ENTITIES
  0
ARC
  8
0
 10
-421.5624
 20
-9.24928
 30
0.0
 40
357.9729
 50
310.3673
 51
1.481045
  0
LINE
  8
0
 10
-189.7099
 20
-281.9927
 30
0.0
 11
-381.9951
 21
-479.9941
 31
0.0
  0
ARC
  8
0
 10
-150.1413
 20
-752.7365
 30
0.0
 40
357.9729
 50
130.3674
 51
181.481
  0
ARC
  8
0
 10
-150.1413
 20
-771.2482
 30
0.0
 40
357.9729
 50
178.5191
 51
229.6327
  0
LINE
  8
0
 10
-381.9952
 20
-1043.998
 30
0.0
 11
-189.7099
 21
-1242
 31
0.0
  0
ARC
  8
0
 10
-421.5625
 20
-1514.743
 30
0.0
 40
357.9729
 50
358.5189
 51
49.63299
  0
CIRCLE
  8
0
 10
1000
 20
7000
 30
0.0
 40
100
  0
CIRCLE
  8
0
 10
2000
 20
8000
 30
0.0
 40
100
  0
CIRCLE
  8
0
 10
3000
 20
7000
 30
0.0
 40
100
  0
CIRCLE
  8
0
 10
100
 20
100
 30
0.0
 40
126
  0
CIRCLE
  8
0
 10
200
 20
200
 30
0.0
 40
205
  0
CIRCLE
  8
0
 10
300
 20
300
 30
0.0
 40
200
  0
CIRCLE
  8
0
 10
350
 20
350
 30
0.0
 40
200
  0
CIRCLE
  8
0
 10
360
 20
360
 30
0.0
 40
200
  0
CIRCLE
  8
0
 10
370
 20
370
 30
0.0
 40
200
  0
ENDSEC
  0
EOF
