  0
SECTION
  2
ENTITIES
  0
LINE
  8
0
 10
-49.90726
 20
635
 30
0.0
 11
203.6032
 21
317.5
 31
0.0
  0
LINE
  8
0
 10
203.6032
 20
317.5
 30
0.0
 11
253.8481
 21
254.4521
 31
0.0
  0
LINE
  8
0
 10
253.623
 20
254.4521
 30
0.0
 11
303.8678
 21
317.5
 31
0.0
  0
LINE
  8
0
 10
303.8678
 20
317.5
 30
0.0
 11
557.3783
 21
635
 31
0.0
  0
LINE
  8
0
 10
557.3783
 20
635
 30
0.0
 11
303.8678
 21
317.5
 31
0.0
  0
LINE
  8
0
 10
303.6428
 20
317.5
 30
0.0
 11
557.1533
 21
0
 31
0.0
  0
LINE
  8
0
 10
557.1533
 20
0
 30
0.0
 11
303.6428
 21
317.5
 31
0.0
  0
LINE
  8
0
 10
303.6428
 20
317.5
 30
0.0
 11
253.398
 21
380.5479
 31
0.0
  0
LINE
  8
0
 10
253.623
 20
380.5479
 30
0.0
 11
203.3782
 21
317.5
 31
0.0
  0
LINE
  8
0
 10
203.3782
 20
317.5
 30
0.0
 11
-50.13229
 21
0
 31
0.0
  0
CIRCLE
  8
0
 10
1000
 20
7000
 30
0.0
 40
100
  0
CIRCLE
  8
0
 10
2500
 20
7000
 30
0.0
 40
100
  0
CIRCLE
  8
0
 10
4000
 20
7000
 30
0.0
 40
100
  0
CIRCLE
  8
0
 10
100
 20
100
 30
0.0
 40
125
  0
CIRCLE
  8
0
 10
200
 20
200
 30
0.0
 40
200
  0
CIRCLE
  8
0
 10
300
 20
300
 30
0.0
 40
200
  0
CIRCLE
  8
0
 10
350
 20
350
 30
0.0
 40
200
  0
CIRCLE
  8
0
 10
360
 20
360
 30
0.0
 40
200
  0
CIRCLE
  8
0
 10
370
 20
370
 30
0.0
 40
200
  0
ENDSEC
  0
EOF
