  0
SECTION
  2
ENTITIES
  0
LINE
  8
0
 10
254.3425
 20
762.5137
 30
0.0
 11
127.2077
 21
572.0137
 31
0.0
  0
LINE
  8
0
 10
127.2077
 20
572.0137
 30
0.0
 11
7.285201E-02
 21
381.5137
 31
0.0
  0
LINE
  8
0
 10
7.285201E-02
 20
381.5137
 30
0.0
 11
-127.062
 21
191.0137
 31
0.0
  0
LINE
  8
0
 10
-126.9891
 20
191.0137
 30
0.0
 11
.145704
 21
.5137534
 31
0.0
  0
LINE
  8
0
 10
.145704
 20
.5137534
 30
0.0
 11
127.2805
 21
191.0137
 31
0.0
  0
LINE
  8
0
 10
127.2805
 20
191.0137
 30
0.0
 11
254.4153
 21
381.5137
 31
0.0
  0
LINE
  8
0
 10
254.3425
 20
381.5137
 30
0.0
 11
127.2077
 21
572.0137
 31
0.0
  0
LINE
  8
0
 10
127.2077
 20
572.0137
 30
0.0
 11
254.3425
 21
381.5137
 31
0.0
  0
LINE
  8
0
 10
254.4153
 20
381.5137
 30
0.0
 11
381.5502
 21
572.0137
 31
0.0
  0
LINE
  8
0
 10
381.5502
 20
572.0137
 30
0.0
 11
508.685
 21
381.5137
 31
0.0
  0
LINE
  8
0
 10
508.685
 20
381.5137
 30
0.0
 11
635.8198
 21
191.0137
 31
0.0
  0
LINE
  8
0
 10
635.7469
 20
191.0137
 30
0.0
 11
508.6122
 21
.5137534
 31
0.0
  0
LINE
  8
0
 10
508.6122
 20
.5137534
 30
0.0
 11
381.4773
 21
191.0137
 31
0.0
  0
LINE
  8
0
 10
381.4773
 20
191.0137
 30
0.0
 11
254.3425
 21
381.5137
 31
0.0
  0
LINE
  8
0
 10
254.3425
 20
381.5137
 30
0.0
 11
381.4773
 21
191.0137
 31
0.0
  0
LINE
  8
0
 10
381.4773
 20
191.0137
 30
0.0
 11
508.6122
 21
.5137534
 31
0.0
  0
LINE
  8
0
 10
508.6122
 20
.5137534
 30
0.0
 11
381.4773
 21
-189.9862
 31
0.0
  0
LINE
  8
0
 10
381.4773
 20
-189.9862
 30
0.0
 11
254.3425
 21
-380.4862
 31
0.0
  0
LINE
  8
0
 10
254.3425
 20
-380.4862
 30
0.0
 11
381.4773
 21
-189.9862
 31
0.0
  0
LINE
  8
0
 10
381.4773
 20
-189.9862
 30
0.0
 11
508.6122
 21
.5137534
 31
0.0
  0
LINE
  8
0
 10
508.6122
 20
.5137534
 30
0.0
 11
634.9759
 21
-190.4986
 31
0.0
  0
LINE
  8
0
 10
635.8198
 20
-189.9862
 30
0.0
 11
508.685
 21
-380.4862
 31
0.0
  0
LINE
  8
0
 10
508.685
 20
-380.4862
 30
0.0
 11
381.5502
 21
-570.9863
 31
0.0
  0
LINE
  8
0
 10
380.7063
 20
-571.4986
 30
0.0
 11
254.3425
 21
-380.4862
 31
0.0
  0
LINE
  8
0
 10
252.8732
 20
-381.5109
 30
0.0
 11
126.5095
 21
-190.4986
 31
0.0
  0
LINE
  8
0
 10
126.5095
 20
-190.4986
 30
0.0
 11
.145704
 21
.5137534
 31
0.0
  0
LINE
  8
0
 10
.145704
 20
.5137534
 30
0.0
 11
-126.9891
 21
-189.9862
 31
0.0
  0
LINE
  8
0
 10
-127.062
 20
-189.9862
 30
0.0
 11
7.285201E-02
 21
-380.4862
 31
0.0
  0
LINE
  8
0
 10
7.285201E-02
 20
-380.4862
 30
0.0
 11
127.2077
 21
-570.9863
 31
0.0
  0
LINE
  8
0
 10
127.2077
 20
-570.9863
 30
0.0
 11
254.3425
 21
-380.4862
 31
0.0
  0
CIRCLE
  8
0
 10
1000
 20
7000
 30
0.0
 40
100
  0
CIRCLE
  8
0
 10
2500
 20
7000
 30
0.0
 40
100
  0
CIRCLE
  8
0
 10
4000
 20
7000
 30
0.0
 40
100
  0
CIRCLE
  8
0
 10
100
 20
100
 30
0.0
 40
127
  0
CIRCLE
  8
0
 10
200
 20
200
 30
0.0
 40
200
  0
CIRCLE
  8
0
 10
300
 20
300
 30
0.0
 40
200
  0
CIRCLE
  8
0
 10
350
 20
350
 30
0.0
 40
200
  0
CIRCLE
  8
0
 10
360
 20
360
 30
0.0
 40
200
  0
CIRCLE
  8
0
 10
370
 20
370
 30
0.0
 40
200
  0
ENDSEC
  0
EOF
