  0
SECTION
  2
ENTITIES
  0
ARC
  8
0
 10
957.4761
 20
751.9761
 30
0.0
 40
988.0709
 50
194.2952
 51
229.5573
  0
ARC
  8
0
 10
-324.4123
 20
751.9885
 30
0.0
 40
988.0709
 50
310.4417
 51
345.7038
  0
ARC
  8
0
 10
1590.536
 20
751.965
 30
0.0
 40
988.0709
 50
194.2952
 51
229.5573
  0
ARC
  8
0
 10
565.1949
 20
592.1148
 30
0.0
 40
705.9415
 50
302.9902
 51
353.1564
  0
ARC
  8
0
 10
565.1949
 20
592.1148
 30
0.0
 40
705.9415
 50
302.9902
 51
353.1564
  0
ARC
  8
0
 10
308.6214
 20
-751.9799
 30
0.0
 40
988.0709
 50
14.29452
 51
49.55654
  0
ARC
  8
0
 10
308.6214
 20
-751.9799
 30
0.0
 40
988.0709
 50
14.29452
 51
49.55654
  0
ARC
  8
0
 10
1590.51
 20
-752.0121
 30
0.0
 40
988.0709
 50
130.4408
 51
165.7029
  0
ARC
  8
0
 10
-324.4385
 20
-751.9688
 30
0.0
 40
988.0709
 50
14.29452
 51
49.55654
  0
ARC
  8
0
 10
957.4499
 20
-752.0011
 30
0.0
 40
988.0709
 50
130.4408
 51
165.7029
  0
CIRCLE
  8
0
 10
1000
 20
7000
 30
0.0
 40
100
  0
CIRCLE
  8
0
 10
3500
 20
7000
 30
0.0
 40
100
  0
CIRCLE
  8
0
 10
6000
 20
7000
 30
0.0
 40
100
  0
CIRCLE
  8
0
 10
100
 20
100
 30
0.0
 40
125
  0
CIRCLE
  8
0
 10
200
 20
200
 30
0.0
 40
200
  0
CIRCLE
  8
0
 10
300
 20
300
 30
0.0
 40
200
  0
CIRCLE
  8
0
 10
350
 20
350
 30
0.0
 40
200
  0
CIRCLE
  8
0
 10
360
 20
360
 30
0.0
 40
200
  0
CIRCLE
  8
0
 10
370
 20
370
 30
0.0
 40
200
  0
ENDSEC
  0
EOF
