  0
SECTION
  2
ENTITIES
  0
LINE
  8
0
 10
254
 20
1016
 30
0.0
 11
254
 21
762
 31
0.0
  0
LINE
  8
0
 10
254
 20
762
 30
0.0
 11
254
 21
508
 31
0.0
  0
LINE
  8
0
 10
254
 20
508
 30
0.0
 11
254
 21
254
 31
0.0
  0
LINE
  8
0
 10
254
 20
254
 30
0.0
 11
127
 21
254
 31
0.0
  0
LINE
  8
0
 10
127
 20
254
 30
0.0
 11
3.814697E-06
 21
254
 31
0.0
  0
LINE
  8
0
 10
3.814697E-06
 20
254
 30
0.0
 11
3.814697E-06
 21
1.525879E-05
 31
0.0
  0
LINE
  8
0
 10
3.814697E-06
 20
1.525879E-05
 30
0.0
 11
3.814697E-06
 21
-254
 31
0.0
  0
LINE
  8
0
 10
3.814697E-06
 20
-254
 30
0.0
 11
3.814697E-06
 21
-508
 31
0.0
  0
LINE
  8
0
 10
3.814697E-06
 20
-508
 30
0.0
 11
127
 21
-508
 31
0.0
  0
LINE
  8
0
 10
127
 20
-508
 30
0.0
 11
254
 21
-508
 31
0.0
  0
CIRCLE
  8
0
 10
1000
 20
7000
 30
0.0
 40
100
  0
CIRCLE
  8
0
 10
2500
 20
8000
 30
0.0
 40
100
  0
CIRCLE
  8
0
 10
4000
 20
7000
 30
0.0
 40
100
  0
CIRCLE
  8
0
 10
100
 20
100
 30
0.0
 40
125
  0
CIRCLE
  8
0
 10
200
 20
200
 30
0.0
 40
200
  0
CIRCLE
  8
0
 10
300
 20
300
 30
0.0
 40
200
  0
CIRCLE
  8
0
 10
350
 20
350
 30
0.0
 40
200
  0
CIRCLE
  8
0
 10
360
 20
360
 30
0.0
 40
200
  0
CIRCLE
  8
0
 10
370
 20
370
 30
0.0
 40
200
  0
ENDSEC
  0
EOF
