  0
SECTION
  2
ENTITIES
  0
LINE
  8
0
 10
433.1838
 20
216.6012
 30
0.0
 11
707.2405
 21
72.20042
 31
0.0
  0
LINE
  8
0
 10
707.2405
 20
72.20042
 30
0.0
 11
369.8448
 21
-105.2962
 31
0.0
  0
LINE
  8
0
 10
369.8448
 20
-105.2962
 30
0.0
 11
369.8448
 21
178.257
 31
0.0
  0
LINE
  8
0
 10
369.8448
 20
178.257
 30
0.0
 11
573.3115
 21
72.19273
 31
0.0
  0
LINE
  8
0
 10
573.3115
 20
72.19273
 30
0.0
 11
433.1838
 21
-.8836594
 31
0.0
  0
LINE
  8
0
 10
433.1838
 20
-.8836594
 30
0.0
 11
433.1838
 21
83.31085
 31
0.0
  0
LINE
  8
0
 10
433.1838
 20
83.31085
 30
0.0
 11
643.5365
 21
-37.39876
 31
0.0
  0
LINE
  8
0
 10
643.5365
 20
-37.39876
 30
0.0
 11
369.48
 21
-181.7995
 31
0.0
  0
LINE
  8
0
 10
369.48
 20
-181.7995
 30
0.0
 11
706.8755
 21
-359.2961
 31
0.0
  0
LINE
  8
0
 10
706.8755
 20
-359.2961
 30
0.0
 11
706.8755
 21
-75.74299
 31
0.0
  0
LINE
  8
0
 10
706.8755
 20
-75.74299
 30
0.0
 11
503.409
 21
-181.8072
 31
0.0
  0
LINE
  8
0
 10
503.409
 20
-181.8072
 30
0.0
 11
643.5365
 21
-254.8838
 31
0.0
  0
LINE
  8
0
 10
643.5365
 20
-254.8838
 30
0.0
 11
643.5365
 21
-170.6891
 31
0.0
  0
LINE
  8
0
 10
643.5365
 20
-170.6891
 30
0.0
 11
433.1838
 21
-291.3988
 31
0.0
  0
CIRCLE
  8
0
 10
1000
 20
7000
 30
0.0
 40
100
  0
CIRCLE
  8
0
 10
2000
 20
8000
 30
0.0
 40
100
  0
CIRCLE
  8
0
 10
3000
 20
7000
 30
0.0
 40
100
  0
CIRCLE
  8
0
 10
100
 20
100
 30
0.0
 40
125
  0
CIRCLE
  8
0
 10
200
 20
200
 30
0.0
 40
200
  0
CIRCLE
  8
0
 10
300
 20
300
 30
0.0
 40
200
  0
CIRCLE
  8
0
 10
350
 20
350
 30
0.0
 40
200
  0
CIRCLE
  8
0
 10
360
 20
360
 30
0.0
 40
200
  0
CIRCLE
  8
0
 10
370
 20
370
 30
0.0
 40
200
  0
ENDSEC
  0
EOF
