  0
SECTION
  2
ENTITIES
  0
LINE
  8
0
 10
0
 20
254
 30
0.0
 11
0
 21
-508
 31
0.0
  0
LINE
  8
0
 10
0
 20
-508
 30
0.0
 11
508
 21
3.814697E-06
 31
0.0
  0
LINE
  8
0
 10
508
 20
3.814697E-06
 30
0.0
 11
635
 21
-254
 31
0.0
  0
LINE
  8
0
 10
635
 20
-254
 30
0.0
 11
939.0728
 21
-9.304344
 31
0.0
  0
LINE
  8
0
 10
939.0728
 20
-9.304344
 30
0.0
 11
1270
 21
-508
 31
0.0
  0
LINE
  8
0
 10
1270
 20
-508
 30
0.0
 11
635
 21
-254
 31
0.0
  0
LINE
  8
0
 10
635
 20
-254
 30
0.0
 11
831.5637
 21
-943.9739
 31
0.0
  0
LINE
  8
0
 10
831.5637
 20
-943.9739
 30
0.0
 11
635
 21
-254
 31
0.0
  0
LINE
  8
0
 10
635
 20
-254
 30
0.0
 11
169.5854
 21
-947.1522
 31
0.0
  0
LINE
  8
0
 10
169.5854
 20
-947.1522
 30
0.0
 11
508
 21
-1270
 31
0.0
  0
LINE
  8
0
 10
508
 20
-1270
 30
0.0
 11
831.5637
 21
-943.9739
 31
0.0
  0
LINE
  8
0
 10
831.5637
 20
-943.9739
 30
0.0
 11
1270
 21
-508
 31
0.0
  0
LINE
  8
0
 10
1270
 20
-508
 30
0.0
 11
1439.585
 21
-947.1522
 31
0.0
  0
LINE
  8
0
 10
1439.585
 20
-947.1522
 30
0.0
 11
831.5637
 21
-943.9739
 31
0.0
  0
LINE
  8
0
 10
831.5637
 20
-943.9739
 30
0.0
 11
869.3455
 21
-1272.291
 31
0.0
  0
LINE
  8
0
 10
869.3455
 20
-1272.291
 30
0.0
 11
939.0728
 21
-1914.304
 31
0.0
  0
LINE
  8
0
 10
939.0728
 20
-1914.304
 30
0.0
 11
869.3455
 21
-1272.291
 31
0.0
  0
LINE
  8
0
 10
869.3455
 20
-1272.291
 30
0.0
 11
1270
 21
-1651
 31
0.0
  0
LINE
  8
0
 10
1270
 20
-1651
 30
0.0
 11
939.0728
 21
-1914.304
 31
0.0
  0
LINE
  8
0
 10
939.0728
 20
-1914.304
 30
0.0
 11
508
 21
-1270
 31
0.0
  0
LINE
  8
0
 10
508
 20
-1270
 30
0.0
 11
507.4182
 21
-1651
 31
0.0
  0
LINE
  8
0
 10
507.4182
 20
-1651
 30
0.0
 11
508
 21
-1905
 31
0.0
  0
LINE
  8
0
 10
508
 20
-1905
 30
0.0
 11
0
 21
-1651
 31
0.0
  0
LINE
  8
0
 10
0
 20
-1651
 30
0.0
 11
507.4182
 21
-1651
 31
0.0
  0
LINE
  8
0
 10
507.4182
 20
-1651
 30
0.0
 11
0
 21
-1651
 31
0.0
  0
LINE
  8
0
 10
0
 20
-1651
 30
0.0
 11
169.5854
 21
-947.1522
 31
0.0
  0
LINE
  8
0
 10
169.5854
 20
-947.1522
 30
0.0
 11
0
 21
-1651
 31
0.0
  0
CIRCLE
  8
0
 10
1000
 20
7000
 30
0.0
 40
100
  0
CIRCLE
  8
0
 10
3500
 20
7000
 30
0.0
 40
100
  0
CIRCLE
  8
0
 10
6000
 20
7000
 30
0.0
 40
100
  0
CIRCLE
  8
0
 10
100
 20
100
 30
0.0
 40
125
  0
CIRCLE
  8
0
 10
200
 20
200
 30
0.0
 40
200
  0
CIRCLE
  8
0
 10
300
 20
300
 30
0.0
 40
200
  0
CIRCLE
  8
0
 10
350
 20
350
 30
0.0
 40
200
  0
CIRCLE
  8
0
 10
360
 20
360
 30
0.0
 40
200
  0
CIRCLE
  8
0
 10
370
 20
370
 30
0.0
 40
200
  0
ENDSEC
  0
EOF
