  0
SECTION
  2
ENTITIES
  0
LINE
  8
0
 10
-253.9854
 20
580.0101
 30
0.0
 11
-253.9854
 21
0
 31
0.0
  0
LINE
  8
0
 10
-253.9854
 20
0
 30
0.0
 11
-761.9562
 21
-289.9398
 31
0.0
  0
LINE
  8
0
 10
-761.9562
 20
-289.9398
 30
0.0
 11
-253.9854
 21
0
 31
0.0
  0
LINE
  8
0
 10
-253.9854
 20
0
 30
0.0
 11
253.9854
 21
-289.9398
 31
0.0
  0
LINE
  8
0
 10
253.9854
 20
-289.9398
 30
0.0
 11
253.9854
 21
-869.95
 31
0.0
  0
LINE
  8
0
 10
253.9854
 20
-869.95
 30
0.0
 11
-253.9854
 21
-1159.89
 31
0.0
  0
LINE
  8
0
 10
-253.9854
 20
-1159.89
 30
0.0
 11
-761.9562
 21
-869.95
 31
0.0
  0
LINE
  8
0
 10
-761.9562
 20
-869.95
 30
0.0
 11
-253.9854
 21
-1159.89
 31
0.0
  0
CIRCLE
  8
0
 10
1000
 20
7000
 30
0.0
 40
100
  0
CIRCLE
  8
0
 10
3000
 20
7000
 30
0.0
 40
100
  0
CIRCLE
  8
0
 10
5000
 20
7000
 30
0.0
 40
100
  0
CIRCLE
  8
0
 10
100
 20
100
 30
0.0
 40
125
  0
CIRCLE
  8
0
 10
200
 20
200
 30
0.0
 40
200
  0
CIRCLE
  8
0
 10
300
 20
300
 30
0.0
 40
200
  0
CIRCLE
  8
0
 10
350
 20
350
 30
0.0
 40
200
  0
CIRCLE
  8
0
 10
360
 20
360
 30
0.0
 40
200
  0
CIRCLE
  8
0
 10
370
 20
370
 30
0.0
 40
200
  0
ENDSEC
  0
EOF
